ISO-10303-21;
HEADER;
FILE_DESCRIPTION (( 'STEP AP203' ),
    '1' );
FILE_NAME ('Rondelle_pour_vis_CHC_M5.STEP',
    '2025-06-06T09:50:30',
    ( '' ),
    ( '' ),
    'SwSTEP 2.0',
    'SolidWorks 2024',
    '' );
FILE_SCHEMA (( 'CONFIG_CONTROL_DESIGN' ));
ENDSEC;

DATA;
#1 = SHAPE_REPRESENTATION ( 'Rodelle', ( #170 ), #103 ) ;
#2 = ORIENTED_EDGE ( 'NONE', *, *, #147, .F. ) ;
#3 = CARTESIAN_POINT ( 'NONE',  ( 560.0364845115377648, -62.47555279911842518, -6.847434132932164630 ) ) ;
#4 = EDGE_LOOP ( 'NONE', ( #24, #112 ) ) ;
#5 = AXIS2_PLACEMENT_3D ( 'NONE', #23, #321, #290 ) ;
#6 = AXIS2_PLACEMENT_3D ( 'NONE', #363, #225, #134 ) ;
#7 = EDGE_CURVE ( 'NONE', #152, #233, #104, .T. ) ;
#8 = ORIENTED_EDGE ( 'NONE', *, *, #351, .T. ) ;
#9 = DIRECTION ( 'NONE',  ( -0.2641416986120454502, 0.000000000000000000, 0.9644838842895941955 ) ) ;
#10 = CALENDAR_DATE ( 2025, 6, 6 ) ;
#11 = PERSON_AND_ORGANIZATION ( #179, #220 ) ;
#12 = PRODUCT_RELATED_PRODUCT_CATEGORY ( 'detail', '', ( #131 ) ) ;
#13 = CC_DESIGN_APPROVAL ( #356, ( #175 ) ) ;
#14 = CIRCLE ( 'NONE', #334, 3.000000000000011990 ) ;
#15 = APPROVAL_ROLE ( '' ) ;
#16 = PERSON_AND_ORGANIZATION ( #179, #220 ) ;
#17 = PERSON_AND_ORGANIZATION_ROLE ( 'design_supplier' ) ;
#18 = LOCAL_TIME ( 11, 50, 30.00000000000000000, #327 ) ;
#19 = APPROVAL_ROLE ( '' ) ;
#20 = CARTESIAN_POINT ( 'NONE',  ( 560.8289096073738165, -62.47555279911842518, -9.740885785800969643 ) ) ;
#21 = EDGE_CURVE ( 'NONE', #260, #26, #57, .T. ) ;
#22 = CARTESIAN_POINT ( 'NONE',  ( 560.8289096073738165, -62.47555279911842518, -9.740885785800969643 ) ) ;
#23 = CARTESIAN_POINT ( 'NONE',  ( 0.000000000000000000, 0.000000000000000000, 0.000000000000000000 ) ) ;
#24 = ORIENTED_EDGE ( 'NONE', *, *, #361, .F. ) ;
#25 = DIRECTION ( 'NONE',  ( -0.2454204222164066695, 0.7995471851325268720, 0.5481725231218487204 ) ) ;
#26 = VERTEX_POINT ( 'NONE', #239 ) ;
#27 = APPLICATION_PROTOCOL_DEFINITION ( 'international standard', 'config_control_design', 1994, #79 ) ;
#28 = CARTESIAN_POINT ( 'NONE',  ( 560.8289096073738165, -62.47555279911842518, -9.740885785800969643 ) ) ;
#29 = DIRECTION ( 'NONE',  ( -0.2641416986120330712, 0.000000000000000000, 0.9644838842895975262 ) ) ;
#30 = VERTEX_POINT ( 'NONE', #142 ) ;
#31 = ADVANCED_FACE ( 'NONE', ( #289 ), #32, .T. ) ;
#32 = CYLINDRICAL_SURFACE ( 'NONE', #178, 16.00000000000001421 ) ;
#33 = AXIS2_PLACEMENT_3D ( 'NONE', #168, #77, #73 ) ;
#34 = CARTESIAN_POINT ( 'NONE',  ( 560.8289096073738165, -62.47555279911842518, -9.740885785800969643 ) ) ;
#35 = DATE_AND_TIME ( #244, #18 ) ;
#36 = CC_DESIGN_PERSON_AND_ORGANIZATION_ASSIGNMENT ( #132, #192, ( #63 ) ) ;
#37 = APPROVAL_DATE_TIME ( #213, #356 ) ;
#38 = PERSON_AND_ORGANIZATION ( #179, #220 ) ;
#39 = PRODUCT_DEFINITION_FORMATION_WITH_SPECIFIED_SOURCE ( 'ANY', '', #131, .NOT_KNOWN. ) ;
#40 = DATE_AND_TIME ( #158, #208 ) ;
#41 =( REPRESENTATION_RELATIONSHIP ('NONE','NONE', #124, #1 ) REPRESENTATION_RELATIONSHIP_WITH_TRANSFORMATION ( #362 )SHAPE_REPRESENTATION_RELATIONSHIP( ) );
#42 = DATE_AND_TIME ( #245, #365 ) ;
#43 = DIRECTION ( 'NONE',  ( -0.9500522461756433223, 0.1723433867023856092, -0.2601893283679536095 ) ) ;
#44 = CC_DESIGN_SECURITY_CLASSIFICATION ( #348, ( #373 ) ) ;
#45 = SECURITY_CLASSIFICATION_LEVEL ( 'unclassified' ) ;
#46 = CARTESIAN_POINT ( 'NONE',  ( 560.8289096073738165, -62.47555279911842518, -9.740885785800969643 ) ) ;
#47 = APPROVAL ( #154, 'UNSPECIFIED' ) ;
#48 = APPROVAL_ROLE ( '' ) ;
#49 = CARTESIAN_POINT ( 'NONE',  ( 560.8289096073738165, -62.47555279911842518, -9.740885785800969643 ) ) ;
#50 = APPROVAL_PERSON_ORGANIZATION ( #143, #125, #111 ) ;
#51 = CALENDAR_DATE ( 2025, 6, 6 ) ;
#52 = CARTESIAN_POINT ( 'NONE',  ( 576.8869333258031702, 104.6478416664463396, 108.6341425666624048 ) ) ;
#53 = ORIENTED_EDGE ( 'NONE', *, *, #369, .F. ) ;
#54 = ORIENTED_EDGE ( 'NONE', *, *, #361, .T. ) ;
#55 = LOCAL_TIME ( 11, 50, 30.00000000000000000, #215 ) ;
#56 = AXIS2_PLACEMENT_3D ( 'NONE', #133, #141, #173 ) ;
#57 = LINE ( 'NONE', #295, #74 ) ;
#58 = CARTESIAN_POINT ( 'NONE',  ( 559.8788573611982429, -62.30320941241604515, -10.00107511416892336 ) ) ;
#59 = CC_DESIGN_PERSON_AND_ORGANIZATION_ASSIGNMENT ( #126, #355, ( #276 ) ) ;
#60 = APPLICATION_PROTOCOL_DEFINITION ( 'international standard', 'config_control_design', 1994, #279 ) ;
#61 = LINE ( 'NONE', #3, #171 ) ;
#62 = DIRECTION ( 'NONE',  ( -0.9500522461756433223, 0.1723433867023856092, -0.2601893283679536095 ) ) ;
#63 = SECURITY_CLASSIFICATION ( '', '', #45 ) ;
#64 = DATE_TIME_ROLE ( 'creation_date' ) ;
#65 = CC_DESIGN_PERSON_AND_ORGANIZATION_ASSIGNMENT ( #236, #83, ( #131 ) ) ;
#66 = PERSON_AND_ORGANIZATION_ROLE ( 'creator' ) ;
#67 = SECURITY_CLASSIFICATION_LEVEL ( 'unclassified' ) ;
#68 = COORDINATED_UNIVERSAL_TIME_OFFSET ( 1, 0, .AHEAD. ) ;
#69 = APPROVAL_DATE_TIME ( #353, #125 ) ;
#70 = CARTESIAN_POINT ( 'NONE',  ( 560.8289096073738165, -62.47555279911842518, -9.740885785800969643 ) ) ;
#71 = PRODUCT_DEFINITION_SHAPE ( 'NONE', 'NONE',  #373 ) ;
#72 = COORDINATED_UNIVERSAL_TIME_OFFSET ( 1, 0, .AHEAD. ) ;
#73 = DIRECTION ( 'NONE',  ( 0.2641416986120454502, 0.000000000000000000, -0.9644838842895941955 ) ) ;
#74 = VECTOR ( 'NONE', #210, 1000.000000000000227 ) ;
#75 = PRODUCT_DEFINITION ( 'UNKNOWN', '', #39, #219 ) ;
#76 = CONTEXT_DEPENDENT_SHAPE_REPRESENTATION ( #41, #71 ) ;
#77 = DIRECTION ( 'NONE',  ( 0.9500522461756435444, -0.1723433867023856370, 0.2601893283679536650 ) ) ;
#78 =( NAMED_UNIT ( * ) SI_UNIT ( $, .STERADIAN. ) SOLID_ANGLE_UNIT ( ) );
#79 = APPLICATION_CONTEXT ( 'configuration controlled 3d designs of mechanical parts and assemblies' ) ;
#80 = DIRECTION ( 'NONE',  ( 0.000000000000000000, 0.000000000000000000, 1.000000000000000000 ) ) ;
#81 = PRODUCT_DEFINITION_FORMATION_WITH_SPECIFIED_SOURCE ( 'ANY', '', #276, .NOT_KNOWN. ) ;
#82 = ORIENTED_EDGE ( 'NONE', *, *, #116, .F. ) ;
#83 = PERSON_AND_ORGANIZATION_ROLE ( 'design_owner' ) ;
#84 = EDGE_LOOP ( 'NONE', ( #53, #238, #346, #172 ) ) ;
#85 = DIRECTION ( 'NONE',  ( -0.9500522461756433223, 0.1723433867023856092, -0.2601893283679536095 ) ) ;
#86 = CC_DESIGN_SECURITY_CLASSIFICATION ( #63, ( #81 ) ) ;
#87 = FACE_OUTER_BOUND ( 'NONE', #293, .T. ) ;
#88 = ORIENTED_EDGE ( 'NONE', *, *, #211, .F. ) ;
#89 = DIRECTION ( 'NONE',  ( 0.9500522461756432113, -0.1723433867023856092, 0.2601893283679536650 ) ) ;
#90 = APPLICATION_PROTOCOL_DEFINITION ( 'international standard', 'config_control_design', 1994, #98 ) ;
#91 = LOCAL_TIME ( 11, 50, 30.00000000000000000, #248 ) ;
#92 = LOCAL_TIME ( 11, 50, 30.00000000000000000, #337 ) ;
#93 = APPROVAL_STATUS ( 'not_yet_approved' ) ;
#94 = APPROVAL_ROLE ( '' ) ;
#95 = DATE_AND_TIME ( #10, #91 ) ;
#96 = COORDINATED_UNIVERSAL_TIME_OFFSET ( 1, 0, .AHEAD. ) ;
#97 = APPROVAL_PERSON_ORGANIZATION ( #335, #284, #19 ) ;
#98 = APPLICATION_CONTEXT ( 'configuration controlled 3d designs of mechanical parts and assemblies' ) ;
#99 = SECURITY_CLASSIFICATION_LEVEL ( 'unclassified' ) ;
#100 = APPROVAL ( #122, 'UNSPECIFIED' ) ;
#101 = CARTESIAN_POINT ( 'NONE',  ( 565.0551767851666227, -62.47555279911842518, -25.17262793443448743 ) ) ;
#102 = DATE_AND_TIME ( #364, #92 ) ;
#103 =( GEOMETRIC_REPRESENTATION_CONTEXT ( 3 ) GLOBAL_UNCERTAINTY_ASSIGNED_CONTEXT ( ( #358 ) ) GLOBAL_UNIT_ASSIGNED_CONTEXT ( ( #196, #338, #78 ) ) REPRESENTATION_CONTEXT ( 'NONE', 'WORKASPACE' ) );
#104 = CIRCLE ( 'NONE', #221, 3.000000000000011990 ) ;
#105 = APPROVAL_DATE_TIME ( #226, #284 ) ;
#106 = DIRECTION ( 'NONE',  ( 0.9500522461756435444, -0.1723433867023856370, 0.2601893283679536650 ) ) ;
#107 = DIRECTION ( 'NONE',  ( -0.9500522461756433223, 0.1723433867023855814, -0.2601893283679536095 ) ) ;
#108 = CC_DESIGN_PERSON_AND_ORGANIZATION_ASSIGNMENT ( #16, #161, ( #81 ) ) ;
#109 = APPROVAL_PERSON_ORGANIZATION ( #300, #246, #218 ) ;
#110 = ORIENTED_EDGE ( 'NONE', *, *, #211, .T. ) ;
#111 = APPROVAL_ROLE ( '' ) ;
#112 = ORIENTED_EDGE ( 'NONE', *, *, #255, .F. ) ;
#113 = CC_DESIGN_DATE_AND_TIME_ASSIGNMENT ( #102, #194, ( #348 ) ) ;
#114 = DIRECTION ( 'NONE',  ( -0.9500522461756433223, 0.1723433867023855814, -0.2601893283679536095 ) ) ;
#115 = ORIENTED_EDGE ( 'NONE', *, *, #21, .F. ) ;
#116 = EDGE_CURVE ( 'NONE', #233, #152, #14, .T. ) ;
#117 = DIRECTION ( 'NONE',  ( -0.2641416986120454502, 0.000000000000000000, 0.9644838842895941955 ) ) ;
#118 = DATE_AND_TIME ( #186, #151 ) ;
#119 = LINE ( 'NONE', #271, #136 ) ;
#120 = CALENDAR_DATE ( 2025, 6, 6 ) ;
#121 = CIRCLE ( 'NONE', #6, 16.00000000000001421 ) ;
#122 = APPROVAL_STATUS ( 'not_yet_approved' ) ;
#123 = PERSON_AND_ORGANIZATION_ROLE ( 'creator' ) ;
#124 = SHAPE_REPRESENTATION ( 'Rondelle_pour_vis_CHC_M5', ( #5, #156 ), #317 ) ;
#125 = APPROVAL ( #261, 'UNSPECIFIED' ) ;
#126 = PERSON_AND_ORGANIZATION ( #179, #220 ) ;
#127 = APPROVAL_DATE_TIME ( #200, #162 ) ;
#128 = MANIFOLD_SOLID_BREP ( 'Extrusion1', #195 ) ;
#129 = CC_DESIGN_APPROVAL ( #47, ( #39 ) ) ;
#130 = CC_DESIGN_DATE_AND_TIME_ASSIGNMENT ( #35, #275, ( #75 ) ) ;
#131 = PRODUCT ( 'Rondelle_pour_vis_CHC_M5', 'Rondelle_pour_vis_CHC_M5', '', ( #294 ) ) ;
#132 = PERSON_AND_ORGANIZATION ( #179, #220 ) ;
#133 = CARTESIAN_POINT ( 'NONE',  ( 560.8289096073738165, -62.47555279911842518, -9.740885785800969643 ) ) ;
#134 = DIRECTION ( 'NONE',  ( 0.2641416986120454502, 0.000000000000000000, -0.9644838842895941955 ) ) ;
#135 = CC_DESIGN_APPROVAL ( #246, ( #268 ) ) ;
#136 = VECTOR ( 'NONE', #212, 1000.000000000000227 ) ;
#137 = PERSON_AND_ORGANIZATION ( #179, #220 ) ;
#138 = DIRECTION ( 'NONE',  ( 0.2641416986120454502, 0.000000000000000000, -0.9644838842895941955 ) ) ;
#139 = ADVANCED_FACE ( 'NONE', ( #316 ), #180, .F. ) ;
#140 = APPLICATION_CONTEXT ( 'configuration controlled 3d designs of mechanical parts and assemblies' ) ;
#141 = DIRECTION ( 'NONE',  ( 0.9500522461756432113, -0.1723433867023856092, 0.2601893283679536650 ) ) ;
#142 = CARTESIAN_POINT ( 'NONE',  ( 561.6213347032099819, -62.47555279911843229, -12.63433743866976222 ) ) ;
#143 = PERSON_AND_ORGANIZATION ( #179, #220 ) ;
#144 = CC_DESIGN_SECURITY_CLASSIFICATION ( #268, ( #39 ) ) ;
#145 = AXIS2_PLACEMENT_3D ( 'NONE', #70, #106, #138 ) ;
#146 = DIRECTION ( 'NONE',  ( 0.2641416986120330712, 0.000000000000000000, -0.9644838842895975262 ) ) ;
#147 = EDGE_CURVE ( 'NONE', #174, #233, #61, .T. ) ;
#148 = EDGE_LOOP ( 'NONE', ( #263, #204 ) ) ;
#149 = EDGE_LOOP ( 'NONE', ( #270, #8 ) ) ;
#150 =( NAMED_UNIT ( * ) PLANE_ANGLE_UNIT ( ) SI_UNIT ( $, .RADIAN. ) );
#151 = LOCAL_TIME ( 11, 50, 30.00000000000000000, #155 ) ;
#152 = VERTEX_POINT ( 'NONE', #240 ) ;
#153 = CYLINDRICAL_SURFACE ( 'NONE', #227, 16.00000000000001421 ) ;
#154 = APPROVAL_STATUS ( 'not_yet_approved' ) ;
#155 = COORDINATED_UNIVERSAL_TIME_OFFSET ( 1, 0, .AHEAD. ) ;
#156 = AXIS2_PLACEMENT_3D ( 'NONE', #52, #25, #259 ) ;
#157 = CIRCLE ( 'NONE', #257, 3.000000000000011990 ) ;
#158 = CALENDAR_DATE ( 2025, 6, 6 ) ;
#159 = PRODUCT_DEFINITION_SHAPE ( 'NONE', 'NONE',  #75 ) ;
#160 = APPROVAL_DATE_TIME ( #40, #100 ) ;
#161 = PERSON_AND_ORGANIZATION_ROLE ( 'creator' ) ;
#162 = APPROVAL ( #367, 'UNSPECIFIED' ) ;
#163 = LOCAL_TIME ( 11, 50, 30.00000000000000000, #305 ) ;
#164 = DIRECTION ( 'NONE',  ( -0.2641416986120330712, 0.000000000000000000, 0.9644838842895975262 ) ) ;
#165 = PRODUCT_DEFINITION_SHAPE ( 'NONE', 'NONE',  #175 ) ;
#166 = APPROVAL_STATUS ( 'not_yet_approved' ) ;
#167 = DIRECTION ( 'NONE',  ( 0.9500522461756435444, -0.1723433867023856370, 0.2601893283679536650 ) ) ;
#168 = CARTESIAN_POINT ( 'NONE',  ( 559.8788573611982429, -62.30320941241604515, -10.00107511416892336 ) ) ;
#169 = CARTESIAN_POINT ( 'NONE',  ( 0.000000000000000000, 0.000000000000000000, 0.000000000000000000 ) ) ;
#170 = AXIS2_PLACEMENT_3D ( 'NONE', #368, #234, #336 ) ;
#171 = VECTOR ( 'NONE', #114, 1000.000000000000227 ) ;
#172 = ORIENTED_EDGE ( 'NONE', *, *, #7, .F. ) ;
#173 = DIRECTION ( 'NONE',  ( 0.2641416986120464494, 0.000000000000000000, -0.9644838842895938624 ) ) ;
#174 = VERTEX_POINT ( 'NONE', #347 ) ;
#175 = PRODUCT_DEFINITION ( 'UNKNOWN', '', #81, #250 ) ;
#176 = DIRECTION ( 'NONE',  ( 0.2641416986120330712, 0.000000000000000000, -0.9644838842895975262 ) ) ;
#177 = LOCAL_TIME ( 11, 50, 30.00000000000000000, #96 ) ;
#178 = AXIS2_PLACEMENT_3D ( 'NONE', #28, #85, #117 ) ;
#179 = PERSON ( 'UNSPECIFIED', 'UNSPECIFIED', 'UNSPECIFIED', ('UNSPECIFIED'), ('UNSPECIFIED'), ('UNSPECIFIED') ) ;
#180 = CYLINDRICAL_SURFACE ( 'NONE', #328, 3.000000000000011990 ) ;
#181 = ORIENTED_EDGE ( 'NONE', *, *, #21, .T. ) ;
#182 = EDGE_LOOP ( 'NONE', ( #115, #314, #110, #266 ) ) ;
#183 = CC_DESIGN_DATE_AND_TIME_ASSIGNMENT ( #118, #64, ( #175 ) ) ;
#184 = CARTESIAN_POINT ( 'NONE',  ( 559.0864322653621912, -62.30320941241603805, -7.107623461300121903 ) ) ;
#185 = PERSON_AND_ORGANIZATION ( #179, #220 ) ;
#186 = CALENDAR_DATE ( 2025, 6, 6 ) ;
#187 = PERSON_AND_ORGANIZATION ( #179, #220 ) ;
#188 = UNCERTAINTY_MEASURE_WITH_UNIT (LENGTH_MEASURE( 1.000000000000000082E-05 ), #331, 'distance_accuracy_value', 'NONE');
#189 = APPROVAL_DATE_TIME ( #42, #246 ) ;
#190 = CALENDAR_DATE ( 2025, 6, 6 ) ;
#191 = CC_DESIGN_PERSON_AND_ORGANIZATION_ASSIGNMENT ( #38, #66, ( #175 ) ) ;
#192 = PERSON_AND_ORGANIZATION_ROLE ( 'classification_officer' ) ;
#193 = PLANE ( 'NONE',  #56 ) ;
#194 = DATE_TIME_ROLE ( 'classification_date' ) ;
#195 = CLOSED_SHELL ( 'NONE', ( #251, #224, #235, #198, #31, #139 ) ) ;
#196 =( LENGTH_UNIT ( ) NAMED_UNIT ( * ) SI_UNIT ( .MILLI., .METRE. ) );
#197 = DIRECTION ( 'NONE',  ( 0.9500522461756435444, -0.1723433867023856370, 0.2601893283679536650 ) ) ;
#198 = ADVANCED_FACE ( 'NONE', ( #87, #209 ), #319, .F. ) ;
#199 = DIRECTION ( 'NONE',  ( 0.2641416986120330712, 0.000000000000000000, -0.9644838842895975262 ) ) ;
#200 = DATE_AND_TIME ( #51, #163 ) ;
#201 = ORIENTED_EDGE ( 'NONE', *, *, #369, .T. ) ;
#202 = DIRECTION ( 'NONE',  ( 1.000000000000000000, 0.000000000000000000, 0.000000000000000000 ) ) ;
#203 = CC_DESIGN_APPROVAL ( #100, ( #81 ) ) ;
#204 = ORIENTED_EDGE ( 'NONE', *, *, #7, .T. ) ;
#205 = CC_DESIGN_PERSON_AND_ORGANIZATION_ASSIGNMENT ( #249, #357, ( #75 ) ) ;
#206 = ORIENTED_EDGE ( 'NONE', *, *, #326, .F. ) ;
#207 = DIRECTION ( 'NONE',  ( 0.9500522461756435444, -0.1723433867023856370, 0.2601893283679536650 ) ) ;
#208 = LOCAL_TIME ( 11, 50, 30.00000000000000000, #217 ) ;
#209 = FACE_BOUND ( 'NONE', #148, .T. ) ;
#210 = DIRECTION ( 'NONE',  ( -0.9500522461756433223, 0.1723433867023855814, -0.2601893283679536095 ) ) ;
#211 = EDGE_CURVE ( 'NONE', #264, #288, #119, .T. ) ;
#212 = DIRECTION ( 'NONE',  ( -0.9500522461756433223, 0.1723433867023855814, -0.2601893283679536095 ) ) ;
#213 = DATE_AND_TIME ( #190, #296 ) ;
#214 = APPROVAL_PERSON_ORGANIZATION ( #359, #356, #94 ) ;
#215 = COORDINATED_UNIVERSAL_TIME_OFFSET ( 1, 0, .AHEAD. ) ;
#216 = CC_DESIGN_PERSON_AND_ORGANIZATION_ASSIGNMENT ( #335, #258, ( #348 ) ) ;
#217 = COORDINATED_UNIVERSAL_TIME_OFFSET ( 1, 0, .AHEAD. ) ;
#218 = APPROVAL_ROLE ( '' ) ;
#219 = DESIGN_CONTEXT ( 'detailed design', #79, 'design' ) ;
#220 = ORGANIZATION ( 'UNSPECIFIED', 'UNSPECIFIED', '' ) ;
#221 = AXIS2_PLACEMENT_3D ( 'NONE', #242, #349, #176 ) ;
#222 = PERSON_AND_ORGANIZATION_ROLE ( 'classification_officer' ) ;
#223 = CALENDAR_DATE ( 2025, 6, 6 ) ;
#224 = ADVANCED_FACE ( 'NONE', ( #322 ), #153, .T. ) ;
#225 = DIRECTION ( 'NONE',  ( 0.9500522461756435444, -0.1723433867023856370, 0.2601893283679536650 ) ) ;
#226 = DATE_AND_TIME ( #370, #309 ) ;
#227 = AXIS2_PLACEMENT_3D ( 'NONE', #34, #62, #9 ) ;
#228 = FACE_BOUND ( 'NONE', #4, .T. ) ;
#229 = CC_DESIGN_PERSON_AND_ORGANIZATION_ASSIGNMENT ( #278, #17, ( #81 ) ) ;
#230 = ADVANCED_BREP_SHAPE_REPRESENTATION ( '', ( #128, #170 ), #103 ) ;
#231 = SHAPE_DEFINITION_REPRESENTATION ( #165, #1 ) ;
#232 = DIRECTION ( 'NONE',  ( 0.2641416986120454502, 0.000000000000000000, -0.9644838842895941955 ) ) ;
#233 = VERTEX_POINT ( 'NONE', #184 ) ;
#234 = DIRECTION ( 'NONE',  ( 0.000000000000000000, 0.000000000000000000, 1.000000000000000000 ) ) ;
#235 = ADVANCED_FACE ( 'NONE', ( #298, #228 ), #193, .T. ) ;
#236 = PERSON_AND_ORGANIZATION ( #179, #220 ) ;
#237 = APPROVAL_PERSON_ORGANIZATION ( #185, #100, #299 ) ;
#238 = ORIENTED_EDGE ( 'NONE', *, *, #255, .T. ) ;
#239 = CARTESIAN_POINT ( 'NONE',  ( 564.1051245389909354, -62.30320941241605226, -25.43281726280243404 ) ) ;
#240 = CARTESIAN_POINT ( 'NONE',  ( 560.6712824570342946, -62.30320941241605226, -12.89452676703770884 ) ) ;
#241 = PRODUCT_RELATED_PRODUCT_CATEGORY ( 'detail', '', ( #276 ) ) ;
#242 = CARTESIAN_POINT ( 'NONE',  ( 559.8788573611982429, -62.30320941241604515, -10.00107511416892336 ) ) ;
#243 = CARTESIAN_POINT ( 'NONE',  ( 559.8788573611982429, -62.30320941241604515, -10.00107511416892336 ) ) ;
#244 = CALENDAR_DATE ( 2025, 6, 6 ) ;
#245 = CALENDAR_DATE ( 2025, 6, 6 ) ;
#246 = APPROVAL ( #93, 'UNSPECIFIED' ) ;
#247 = APPLICATION_PROTOCOL_DEFINITION ( 'international standard', 'config_control_design', 1994, #140 ) ;
#248 = COORDINATED_UNIVERSAL_TIME_OFFSET ( 1, 0, .AHEAD. ) ;
#249 = PERSON_AND_ORGANIZATION ( #179, #220 ) ;
#250 = DESIGN_CONTEXT ( 'detailed design', #140, 'design' ) ;
#251 = ADVANCED_FACE ( 'NONE', ( #306 ), #254, .F. ) ;
#252 = APPROVAL_PERSON_ORGANIZATION ( #137, #162, #48 ) ;
#253 = DATE_AND_TIME ( #223, #274 ) ;
#254 = CYLINDRICAL_SURFACE ( 'NONE', #285, 3.000000000000011990 ) ;
#255 = EDGE_CURVE ( 'NONE', #30, #174, #157, .T. ) ;
#256 = CC_DESIGN_APPROVAL ( #162, ( #63 ) ) ;
#257 = AXIS2_PLACEMENT_3D ( 'NONE', #46, #282, #287 ) ;
#258 = PERSON_AND_ORGANIZATION_ROLE ( 'classification_officer' ) ;
#259 = DIRECTION ( 'NONE',  ( -0.9575819776117339144, -0.2880326183615029012, -0.008600401910247622642 ) ) ;
#260 = VERTEX_POINT ( 'NONE', #101 ) ;
#261 = APPROVAL_STATUS ( 'not_yet_approved' ) ;
#262 = CC_DESIGN_APPROVAL ( #284, ( #348 ) ) ;
#263 = ORIENTED_EDGE ( 'NONE', *, *, #116, .T. ) ;
#264 = VERTEX_POINT ( 'NONE', #310 ) ;
#265 = EDGE_CURVE ( 'NONE', #264, #260, #318, .T. ) ;
#266 = ORIENTED_EDGE ( 'NONE', *, *, #326, .T. ) ;
#267 =( NAMED_UNIT ( * ) SI_UNIT ( $, .STERADIAN. ) SOLID_ANGLE_UNIT ( ) );
#268 = SECURITY_CLASSIFICATION ( '', '', #67 ) ;
#269 = CIRCLE ( 'NONE', #145, 16.00000000000001421 ) ;
#270 = ORIENTED_EDGE ( 'NONE', *, *, #265, .T. ) ;
#271 = CARTESIAN_POINT ( 'NONE',  ( 556.6026424295811239, -62.47555279911842518, 5.690856362832551696 ) ) ;
#272 = PERSON_AND_ORGANIZATION ( #179, #220 ) ;
#273 = DATE_AND_TIME ( #120, #177 ) ;
#274 = LOCAL_TIME ( 11, 50, 30.00000000000000000, #72 ) ;
#275 = DATE_TIME_ROLE ( 'creation_date' ) ;
#276 = PRODUCT ( 'Rodelle', 'Rodelle', '', ( #325 ) ) ;
#277 = PERSON_AND_ORGANIZATION ( #179, #220 ) ;
#278 = PERSON_AND_ORGANIZATION ( #179, #220 ) ;
#279 = APPLICATION_CONTEXT ( 'configuration controlled 3d designs of mechanical parts and assemblies' ) ;
#280 = CIRCLE ( 'NONE', #33, 16.00000000000001421 ) ;
#281 = COORDINATED_UNIVERSAL_TIME_OFFSET ( 1, 0, .AHEAD. ) ;
#282 = DIRECTION ( 'NONE',  ( 0.9500522461756435444, -0.1723433867023856370, 0.2601893283679536650 ) ) ;
#283 = PERSON ( 'NAUO-PER1', 'UNSPECIFIED', 'UNSPECIFIED', ('UNSPECIFIED'), ('UNSPECIFIED'), ('UNSPECIFIED') ) ;
#284 = APPROVAL ( #166, 'UNKNOWN' ) ;
#285 = AXIS2_PLACEMENT_3D ( 'NONE', #22, #43, #164 ) ;
#286 = CARTESIAN_POINT ( 'NONE',  ( 555.6525901834055503, -62.30320941241604515, 5.430667034464599752 ) ) ;
#287 = DIRECTION ( 'NONE',  ( 0.2641416986120330712, 0.000000000000000000, -0.9644838842895975262 ) ) ;
#288 = VERTEX_POINT ( 'NONE', #286 ) ;
#289 = FACE_OUTER_BOUND ( 'NONE', #182, .T. ) ;
#290 = DIRECTION ( 'NONE',  ( 1.000000000000000000, 0.000000000000000000, 0.000000000000000000 ) ) ;
#291 = AXIS2_PLACEMENT_3D ( 'NONE', #58, #89, #350 ) ;
#292 = CARTESIAN_POINT ( 'NONE',  ( 560.8289096073738165, -62.47555279911842518, -9.740885785800969643 ) ) ;
#293 = EDGE_LOOP ( 'NONE', ( #206, #313 ) ) ;
#294 = MECHANICAL_CONTEXT ( 'NONE', #279, 'mechanical' ) ;
#295 = CARTESIAN_POINT ( 'NONE',  ( 565.0551767851666227, -62.47555279911842518, -25.17262793443449098 ) ) ;
#296 = LOCAL_TIME ( 11, 50, 30.00000000000000000, #329 ) ;
#297 = CC_DESIGN_DATE_AND_TIME_ASSIGNMENT ( #95, #324, ( #268 ) ) ;
#298 = FACE_OUTER_BOUND ( 'NONE', #149, .T. ) ;
#299 = APPROVAL_ROLE ( '' ) ;
#300 = PERSON_AND_ORGANIZATION ( #179, #220 ) ;
#301 = SHAPE_DEFINITION_REPRESENTATION ( #159, #124 ) ;
#302 = APPROVAL_PERSON_ORGANIZATION ( #187, #47, #15 ) ;
#303 = APPROVAL_STATUS ( 'not_yet_approved' ) ;
#304 = APPROVAL_DATE_TIME ( #273, #47 ) ;
#305 = COORDINATED_UNIVERSAL_TIME_OFFSET ( 1, 0, .AHEAD. ) ;
#306 = FACE_OUTER_BOUND ( 'NONE', #344, .T. ) ;
#307 = CC_DESIGN_PERSON_AND_ORGANIZATION_ASSIGNMENT ( #272, #123, ( #39 ) ) ;
#308 = VECTOR ( 'NONE', #107, 1000.000000000000227 ) ;
#309 = LOCAL_TIME ( 11, 50, 30.00000000000000000, #281 ) ;
#310 = CARTESIAN_POINT ( 'NONE',  ( 556.6026424295811239, -62.47555279911842518, 5.690856362832548143 ) ) ;
#311 = SHAPE_REPRESENTATION_RELATIONSHIP ( 'NONE' , 'NONE' ,  #1, #230 ) ;
#312 = CIRCLE ( 'NONE', #360, 3.000000000000011990 ) ;
#313 = ORIENTED_EDGE ( 'NONE', *, *, #372, .F. ) ;
#314 = ORIENTED_EDGE ( 'NONE', *, *, #265, .F. ) ;
#315 = ORIENTED_EDGE ( 'NONE', *, *, #372, .T. ) ;
#316 = FACE_OUTER_BOUND ( 'NONE', #84, .T. ) ;
#317 =( GEOMETRIC_REPRESENTATION_CONTEXT ( 3 ) GLOBAL_UNCERTAINTY_ASSIGNED_CONTEXT ( ( #188 ) ) GLOBAL_UNIT_ASSIGNED_CONTEXT ( ( #331, #150, #267 ) ) REPRESENTATION_CONTEXT ( 'NONE', 'WORKASPACE' ) );
#318 = CIRCLE ( 'NONE', #366, 16.00000000000001421 ) ;
#319 = PLANE ( 'NONE',  #291 ) ;
#320 = DIRECTION ( 'NONE',  ( -0.9500522461756433223, 0.1723433867023856092, -0.2601893283679536095 ) ) ;
#321 = DIRECTION ( 'NONE',  ( 0.000000000000000000, 0.000000000000000000, 1.000000000000000000 ) ) ;
#322 = FACE_OUTER_BOUND ( 'NONE', #341, .T. ) ;
#323 = CALENDAR_DATE ( 2025, 6, 6 ) ;
#324 = DATE_TIME_ROLE ( 'classification_date' ) ;
#325 = MECHANICAL_CONTEXT ( 'NONE', #98, 'mechanical' ) ;
#326 = EDGE_CURVE ( 'NONE', #288, #26, #121, .T. ) ;
#327 = COORDINATED_UNIVERSAL_TIME_OFFSET ( 1, 0, .AHEAD. ) ;
#328 = AXIS2_PLACEMENT_3D ( 'NONE', #292, #320, #29 ) ;
#329 = COORDINATED_UNIVERSAL_TIME_OFFSET ( 1, 0, .AHEAD. ) ;
#330 = CC_DESIGN_PERSON_AND_ORGANIZATION_ASSIGNMENT ( #11, #222, ( #268 ) ) ;
#331 =( LENGTH_UNIT ( ) NAMED_UNIT ( * ) SI_UNIT ( .MILLI., .METRE. ) );
#332 = LINE ( 'NONE', #342, #308 ) ;
#333 = AXIS2_PLACEMENT_3D ( 'NONE', #169, #80, #202 ) ;
#334 = AXIS2_PLACEMENT_3D ( 'NONE', #243, #207, #146 ) ;
#335 = PERSON_AND_ORGANIZATION ( #283, #354 ) ;
#336 = DIRECTION ( 'NONE',  ( 1.000000000000000000, 0.000000000000000000, 0.000000000000000000 ) ) ;
#337 = COORDINATED_UNIVERSAL_TIME_OFFSET ( 1, 0, .AHEAD. ) ;
#338 =( NAMED_UNIT ( * ) PLANE_ANGLE_UNIT ( ) SI_UNIT ( $, .RADIAN. ) );
#339 = CC_DESIGN_DATE_AND_TIME_ASSIGNMENT ( #253, #340, ( #63 ) ) ;
#340 = DATE_TIME_ROLE ( 'classification_date' ) ;
#341 = EDGE_LOOP ( 'NONE', ( #371, #181, #315, #88 ) ) ;
#342 = CARTESIAN_POINT ( 'NONE',  ( 561.6213347032099819, -62.47555279911842518, -12.63433743866977288 ) ) ;
#343 = CC_DESIGN_APPROVAL ( #125, ( #75 ) ) ;
#344 = EDGE_LOOP ( 'NONE', ( #54, #201, #82, #2 ) ) ;
#345 = CC_DESIGN_PERSON_AND_ORGANIZATION_ASSIGNMENT ( #277, #352, ( #39 ) ) ;
#346 = ORIENTED_EDGE ( 'NONE', *, *, #147, .T. ) ;
#347 = CARTESIAN_POINT ( 'NONE',  ( 560.0364845115377648, -62.47555279911841808, -6.847434132932175288 ) ) ;
#348 = SECURITY_CLASSIFICATION ( '', '', #99 ) ;
#349 = DIRECTION ( 'NONE',  ( 0.9500522461756435444, -0.1723433867023856370, 0.2601893283679536650 ) ) ;
#350 = DIRECTION ( 'NONE',  ( 0.2641416986120464494, 0.000000000000000000, -0.9644838842895938624 ) ) ;
#351 = EDGE_CURVE ( 'NONE', #260, #264, #269, .T. ) ;
#352 = PERSON_AND_ORGANIZATION_ROLE ( 'design_supplier' ) ;
#353 = DATE_AND_TIME ( #323, #55 ) ;
#354 = ORGANIZATION ( 'NAUO-ORG1', 'UNSPECIFIED', 'UNSPECIFIED' ) ;
#355 = PERSON_AND_ORGANIZATION_ROLE ( 'design_owner' ) ;
#356 = APPROVAL ( #303, 'UNSPECIFIED' ) ;
#357 = PERSON_AND_ORGANIZATION_ROLE ( 'creator' ) ;
#358 = UNCERTAINTY_MEASURE_WITH_UNIT (LENGTH_MEASURE( 1.000000000000000082E-05 ), #196, 'distance_accuracy_value', 'NONE');
#359 = PERSON_AND_ORGANIZATION ( #179, #220 ) ;
#360 = AXIS2_PLACEMENT_3D ( 'NONE', #49, #197, #199 ) ;
#361 = EDGE_CURVE ( 'NONE', #174, #30, #312, .T. ) ;
#362 = ITEM_DEFINED_TRANSFORMATION ( 'NONE', 'NONE', #156,  #170 ) ;
#363 = CARTESIAN_POINT ( 'NONE',  ( 559.8788573611982429, -62.30320941241604515, -10.00107511416892336 ) ) ;
#364 = CALENDAR_DATE ( 2025, 6, 6 ) ;
#365 = LOCAL_TIME ( 11, 50, 30.00000000000000000, #68 ) ;
#366 = AXIS2_PLACEMENT_3D ( 'NONE', #20, #167, #232 ) ;
#367 = APPROVAL_STATUS ( 'not_yet_approved' ) ;
#368 = CARTESIAN_POINT ( 'NONE',  ( 0.000000000000000000, 0.000000000000000000, 0.000000000000000000 ) ) ;
#369 = EDGE_CURVE ( 'NONE', #30, #152, #332, .T. ) ;
#370 = CALENDAR_DATE ( 2025, 6, 6 ) ;
#371 = ORIENTED_EDGE ( 'NONE', *, *, #351, .F. ) ;
#372 = EDGE_CURVE ( 'NONE', #26, #288, #280, .T. ) ;
#373 = NEXT_ASSEMBLY_USAGE_OCCURRENCE ( 'NAUO1', ' ', ' ', #75, #175, $ ) ;
ENDSEC;
END-ISO-10303-21;
