ISO-10303-21;
HEADER;
FILE_DESCRIPTION (( 'STEP AP203' ),
    '1' );
FILE_NAME ('Entretoise_1.STEP',
    '2025-06-06T09:42:20',
    ( '' ),
    ( '' ),
    'SwSTEP 2.0',
    'SolidWorks 2024',
    '' );
FILE_SCHEMA (( 'CONFIG_CONTROL_DESIGN' ));
ENDSEC;

DATA;
#1 = SECURITY_CLASSIFICATION_LEVEL ( 'unclassified' ) ;
#2 = VERTEX_POINT ( 'NONE', #103 ) ;
#3 = CARTESIAN_POINT ( 'NONE',  ( 143.2602939524986141, -34.53744527032856837, 47.29072123727411991 ) ) ;
#4 = DIRECTION ( 'NONE',  ( -0.9996351442243138763, 0.02521788943658041446, -0.009676594648940824855 ) ) ;
#5 = EDGE_CURVE ( 'NONE', #233, #226, #241, .T. ) ;
#6 = DIRECTION ( 'NONE',  ( 0.02521907017675183507, 0.9996819486713862668, 0.000000000000000000 ) ) ;
#7 = CARTESIAN_POINT ( 'NONE',  ( 143.2602939524986141, -34.53744527032856837, 47.29072123727411991 ) ) ;
#8 = SECURITY_CLASSIFICATION ( '', '', #1 ) ;
#9 = DIRECTION ( 'NONE',  ( -0.02521907017675184201, -0.9996819486713862668, 0.000000000000000000 ) ) ;
#10 =( LENGTH_UNIT ( ) NAMED_UNIT ( * ) SI_UNIT ( .MILLI., .METRE. ) );
#11 = MECHANICAL_CONTEXT ( 'NONE', #134, 'mechanical' ) ;
#12 = PRODUCT ( 'Entretoise_1', 'Entretoise_1', '', ( #11 ) ) ;
#13 = FACE_OUTER_BOUND ( 'NONE', #43, .T. ) ;
#14 = CIRCLE ( 'NONE', #107, 17.50000000000000711 ) ;
#15 =( NAMED_UNIT ( * ) SI_UNIT ( $, .STERADIAN. ) SOLID_ANGLE_UNIT ( ) );
#16 = EDGE_CURVE ( 'NONE', #40, #2, #82, .T. ) ;
#17 = SHAPE_DEFINITION_REPRESENTATION ( #151, #80 ) ;
#18 = ORIENTED_EDGE ( 'NONE', *, *, #113, .T. ) ;
#19 = DATE_TIME_ROLE ( 'creation_date' ) ;
#20 = ORIENTED_EDGE ( 'NONE', *, *, #180, .T. ) ;
#21 = AXIS2_PLACEMENT_3D ( 'NONE', #204, #42, #106 ) ;
#22 = PERSON_AND_ORGANIZATION ( #156, #48 ) ;
#23 = EDGE_LOOP ( 'NONE', ( #239, #20 ) ) ;
#24 = DIRECTION ( 'NONE',  ( 0.9996351442243138763, -0.02521788943658041446, 0.009676594648940824855 ) ) ;
#25 = AXIS2_PLACEMENT_3D ( 'NONE', #119, #24, #185 ) ;
#26 = CARTESIAN_POINT ( 'NONE',  ( 88.78270298783874637, -33.16313397919836348, 46.76337126537523403 ) ) ;
#27 = DIRECTION ( 'NONE',  ( 0.02521907017675182466, 0.9996819486713861558, 1.110223024625155554E-15 ) ) ;
#28 = DIRECTION ( 'NONE',  ( 0.02521907017675195650, 0.9996819486713861558, 0.000000000000000000 ) ) ;
#29 = AXIS2_PLACEMENT_3D ( 'NONE', #47, #228, #28 ) ;
#30 = DIRECTION ( 'NONE',  ( 0.02521907017675169282, 0.9996819486713861558, 0.000000000000000000 ) ) ;
#31 = DIRECTION ( 'NONE',  ( -0.9996351442243138763, 0.02521788943658037283, -0.009676594648941076390 ) ) ;
#32 = DATE_AND_TIME ( #36, #131 ) ;
#33 = CC_DESIGN_DATE_AND_TIME_ASSIGNMENT ( #174, #19, ( #122 ) ) ;
#34 = CARTESIAN_POINT ( 'NONE',  ( 94.09611708616965586, -20.79319906798896866, 46.81175423861986928 ) ) ;
#35 = APPROVAL_PERSON_ORGANIZATION ( #191, #58, #150 ) ;
#36 = CALENDAR_DATE ( 2025, 6, 6 ) ;
#37 = EDGE_LOOP ( 'NONE', ( #157, #94, #79, #199 ) ) ;
#38 = PRODUCT_RELATED_PRODUCT_CATEGORY ( 'detail', '', ( #12 ) ) ;
#39 = ADVANCED_FACE ( 'NONE', ( #141 ), #240, .T. ) ;
#40 = VERTEX_POINT ( 'NONE', #120 ) ;
#41 = EDGE_LOOP ( 'NONE', ( #55, #97, #115, #182 ) ) ;
#42 = DIRECTION ( 'NONE',  ( 0.9996351442243138763, -0.02521788943658037283, 0.009676594648941078125 ) ) ;
#43 = EDGE_LOOP ( 'NONE', ( #224, #123, #18, #236 ) ) ;
#44 = APPROVAL_PERSON_ORGANIZATION ( #75, #238, #248 ) ;
#45 = ORIENTED_EDGE ( 'NONE', *, *, #84, .F. ) ;
#46 = ORIENTED_EDGE ( 'NONE', *, *, #143, .T. ) ;
#47 = CARTESIAN_POINT ( 'NONE',  ( 88.78270298783874637, -33.16313397919834216, 46.76337126537516298 ) ) ;
#48 = ORGANIZATION ( 'UNSPECIFIED', 'UNSPECIFIED', '' ) ;
#49 = DIRECTION ( 'NONE',  ( 0.9996351442243137653, -0.02521788943658036936, 0.009676594648941078125 ) ) ;
#50 = ADVANCED_FACE ( 'NONE', ( #66 ), #100, .F. ) ;
#51 = CALENDAR_DATE ( 2025, 6, 6 ) ;
#52 = FACE_BOUND ( 'NONE', #124, .T. ) ;
#53 = CALENDAR_DATE ( 2025, 6, 6 ) ;
#54 = AXIS2_PLACEMENT_3D ( 'NONE', #88, #91, #125 ) ;
#55 = ORIENTED_EDGE ( 'NONE', *, *, #193, .F. ) ;
#56 = DATE_AND_TIME ( #53, #190 ) ;
#57 = ORIENTED_EDGE ( 'NONE', *, *, #193, .T. ) ;
#58 = APPROVAL ( #133, 'UNSPECIFIED' ) ;
#59 = PERSON_AND_ORGANIZATION ( #156, #48 ) ;
#60 = DESIGN_CONTEXT ( 'detailed design', #128, 'design' ) ;
#61 = AXIS2_PLACEMENT_3D ( 'NONE', #3, #62, #9 ) ;
#62 = DIRECTION ( 'NONE',  ( -0.9996351442243138763, 0.02521788943658037283, -0.009676594648941076390 ) ) ;
#63 = DIRECTION ( 'NONE',  ( -0.02521907017675184201, -0.9996819486713862668, 0.000000000000000000 ) ) ;
#64 = CARTESIAN_POINT ( 'NONE',  ( 88.46746461062934941, -45.65915833759061115, 46.76337126537516298 ) ) ;
#65 = VECTOR ( 'NONE', #186, 1000.000000000000227 ) ;
#66 = FACE_OUTER_BOUND ( 'NONE', #41, .T. ) ;
#67 = EDGE_CURVE ( 'NONE', #40, #203, #14, .T. ) ;
#68 = EDGE_LOOP ( 'NONE', ( #187, #45 ) ) ;
#69 = CIRCLE ( 'NONE', #54, 12.50000000000001066 ) ;
#70 = APPLICATION_PROTOCOL_DEFINITION ( 'international standard', 'config_control_design', 1994, #128 ) ;
#71 = COORDINATED_UNIVERSAL_TIME_OFFSET ( 1, 0, .AHEAD. ) ;
#72 = PERSON_AND_ORGANIZATION_ROLE ( 'design_owner' ) ;
#73 = AXIS2_PLACEMENT_3D ( 'NONE', #214, #31, #74 ) ;
#74 = DIRECTION ( 'NONE',  ( -0.02521907017675194956, -0.9996819486713861558, 0.000000000000000000 ) ) ;
#75 = PERSON_AND_ORGANIZATION ( #156, #48 ) ;
#76 = CC_DESIGN_PERSON_AND_ORGANIZATION_ASSIGNMENT ( #170, #112, ( #122 ) ) ;
#77 = VERTEX_POINT ( 'NONE', #144 ) ;
#78 = COORDINATED_UNIVERSAL_TIME_OFFSET ( 1, 0, .AHEAD. ) ;
#79 = ORIENTED_EDGE ( 'NONE', *, *, #84, .T. ) ;
#80 = ADVANCED_BREP_SHAPE_REPRESENTATION ( 'Entretoise_1', ( #210, #130 ), #99 ) ;
#81 = ORIENTED_EDGE ( 'NONE', *, *, #232, .T. ) ;
#82 = LINE ( 'NONE', #168, #225 ) ;
#83 = DIRECTION ( 'NONE',  ( 0.02521907017675183507, 0.9996819486713862668, 0.000000000000000000 ) ) ;
#84 = EDGE_CURVE ( 'NONE', #77, #2, #158, .T. ) ;
#85 = LINE ( 'NONE', #235, #246 ) ;
#86 = CARTESIAN_POINT ( 'NONE',  ( 93.46564033175086195, -45.78524778477351731, 46.81175423861986928 ) ) ;
#87 = UNCERTAINTY_MEASURE_WITH_UNIT (LENGTH_MEASURE( 1.000000000000000082E-05 ), #10, 'distance_accuracy_value', 'NONE');
#88 = CARTESIAN_POINT ( 'NONE',  ( 93.78087870896025890, -33.28922342638124121, 46.81175423861987639 ) ) ;
#89 = AXIS2_PLACEMENT_3D ( 'NONE', #7, #207, #63 ) ;
#90 = APPROVAL_DATE_TIME ( #32, #58 ) ;
#91 = DIRECTION ( 'NONE',  ( -0.9996351442243138763, 0.02521788943658041446, -0.009676594648940824855 ) ) ;
#92 = CARTESIAN_POINT ( 'NONE',  ( 89.09794136504814333, -20.66710962080606961, 46.76337126537516298 ) ) ;
#93 = APPROVAL_DATE_TIME ( #96, #102 ) ;
#94 = ORIENTED_EDGE ( 'NONE', *, *, #104, .T. ) ;
#95 = EDGE_CURVE ( 'NONE', #221, #137, #139, .T. ) ;
#96 = DATE_AND_TIME ( #198, #140 ) ;
#97 = ORIENTED_EDGE ( 'NONE', *, *, #132, .T. ) ;
#98 = PERSON_AND_ORGANIZATION ( #156, #48 ) ;
#99 =( GEOMETRIC_REPRESENTATION_CONTEXT ( 3 ) GLOBAL_UNCERTAINTY_ASSIGNED_CONTEXT ( ( #87 ) ) GLOBAL_UNIT_ASSIGNED_CONTEXT ( ( #10, #243, #15 ) ) REPRESENTATION_CONTEXT ( 'NONE', 'WORKASPACE' ) );
#100 = CYLINDRICAL_SURFACE ( 'NONE', #195, 12.49999999999994849 ) ;
#101 = DIRECTION ( 'NONE',  ( -0.9996351442243136542, 0.02521788943658036589, -0.009676594648941074656 ) ) ;
#102 = APPROVAL ( #160, 'UNSPECIFIED' ) ;
#103 = CARTESIAN_POINT ( 'NONE',  ( 88.34136925974559063, -50.65756808094762675, 46.76337126537523403 ) ) ;
#104 = EDGE_CURVE ( 'NONE', #203, #77, #166, .T. ) ;
#105 = DIRECTION ( 'NONE',  ( -0.9996351442243138763, 0.02521788943658037283, -0.009676594648941076390 ) ) ;
#106 = DIRECTION ( 'NONE',  ( 0.02521907017675195650, 0.9996819486713861558, 0.000000000000000000 ) ) ;
#107 = AXIS2_PLACEMENT_3D ( 'NONE', #147, #164, #83 ) ;
#108 = DIRECTION ( 'NONE',  ( 1.000000000000000000, 0.000000000000000000, 0.000000000000000000 ) ) ;
#109 = FACE_OUTER_BOUND ( 'NONE', #68, .T. ) ;
#110 = CIRCLE ( 'NONE', #25, 17.50000000000000711 ) ;
#111 = DIRECTION ( 'NONE',  ( 0.02521907017675183507, 0.9996819486713862668, 0.000000000000000000 ) ) ;
#112 = PERSON_AND_ORGANIZATION_ROLE ( 'creator' ) ;
#113 = EDGE_CURVE ( 'NONE', #233, #137, #85, .T. ) ;
#114 = COORDINATED_UNIVERSAL_TIME_OFFSET ( 1, 0, .AHEAD. ) ;
#115 = ORIENTED_EDGE ( 'NONE', *, *, #143, .F. ) ;
#116 = COORDINATED_UNIVERSAL_TIME_OFFSET ( 1, 0, .AHEAD. ) ;
#117 = AXIS2_PLACEMENT_3D ( 'NONE', #142, #4, #27 ) ;
#118 = CC_DESIGN_SECURITY_CLASSIFICATION ( #8, ( #247 ) ) ;
#119 = CARTESIAN_POINT ( 'NONE',  ( 93.78087870896025890, -33.28922342638126253, 46.81175423861994034 ) ) ;
#120 = CARTESIAN_POINT ( 'NONE',  ( 93.33954498086710316, -50.78365752813052580, 46.81175423861994034 ) ) ;
#121 = CLOSED_SHELL ( 'NONE', ( #50, #39, #162, #244, #208, #220 ) ) ;
#122 = PRODUCT_DEFINITION ( 'UNKNOWN', '', #247, #60 ) ;
#123 = ORIENTED_EDGE ( 'NONE', *, *, #5, .F. ) ;
#124 = EDGE_LOOP ( 'NONE', ( #46, #222 ) ) ;
#125 = DIRECTION ( 'NONE',  ( 0.02521907017675182466, 0.9996819486713861558, -1.110223024625155554E-15 ) ) ;
#126 = CC_DESIGN_APPROVAL ( #238, ( #247 ) ) ;
#127 = APPLICATION_PROTOCOL_DEFINITION ( 'international standard', 'config_control_design', 1994, #134 ) ;
#128 = APPLICATION_CONTEXT ( 'configuration controlled 3d designs of mechanical parts and assemblies' ) ;
#129 = CC_DESIGN_DATE_AND_TIME_ASSIGNMENT ( #56, #201, ( #8 ) ) ;
#130 = AXIS2_PLACEMENT_3D ( 'NONE', #154, #213, #108 ) ;
#131 = LOCAL_TIME ( 11, 42, 20.00000000000000000, #230 ) ;
#132 = EDGE_CURVE ( 'NONE', #226, #221, #223, .T. ) ;
#133 = APPROVAL_STATUS ( 'not_yet_approved' ) ;
#134 = APPLICATION_CONTEXT ( 'configuration controlled 3d designs of mechanical parts and assemblies' ) ;
#135 = EDGE_LOOP ( 'NONE', ( #219, #57 ) ) ;
#136 = CALENDAR_DATE ( 2025, 6, 6 ) ;
#137 = VERTEX_POINT ( 'NONE', #64 ) ;
#138 = PERSON_AND_ORGANIZATION_ROLE ( 'design_supplier' ) ;
#139 = CIRCLE ( 'NONE', #29, 12.49999999999994493 ) ;
#140 = LOCAL_TIME ( 11, 42, 20.00000000000000000, #116 ) ;
#141 = FACE_OUTER_BOUND ( 'NONE', #37, .T. ) ;
#142 = CARTESIAN_POINT ( 'NONE',  ( 93.78087870896025890, -33.28922342638124121, 46.81175423861987639 ) ) ;
#143 = EDGE_CURVE ( 'NONE', #137, #221, #184, .T. ) ;
#144 = CARTESIAN_POINT ( 'NONE',  ( 89.22403671593190211, -15.66869987744909309, 46.76337126537523403 ) ) ;
#145 = VECTOR ( 'NONE', #101, 1000.000000000000227 ) ;
#146 = APPROVAL_PERSON_ORGANIZATION ( #22, #102, #202 ) ;
#147 = CARTESIAN_POINT ( 'NONE',  ( 93.78087870896025890, -33.28922342638126253, 46.81175423861994034 ) ) ;
#148 = CARTESIAN_POINT ( 'NONE',  ( 143.2602939524986141, -34.53744527032854705, 47.29072123727404886 ) ) ;
#149 = PLANE ( 'NONE',  #212 ) ;
#150 = APPROVAL_ROLE ( '' ) ;
#151 = PRODUCT_DEFINITION_SHAPE ( 'NONE', 'NONE',  #122 ) ;
#152 = DIRECTION ( 'NONE',  ( 0.02521907017675165119, 0.9996819486713861558, 0.000000000000000000 ) ) ;
#153 = CC_DESIGN_PERSON_AND_ORGANIZATION_ASSIGNMENT ( #98, #138, ( #247 ) ) ;
#154 = CARTESIAN_POINT ( 'NONE',  ( 0.000000000000000000, 0.000000000000000000, 0.000000000000000000 ) ) ;
#155 = LOCAL_TIME ( 11, 42, 20.00000000000000000, #114 ) ;
#156 = PERSON ( 'UNSPECIFIED', 'UNSPECIFIED', 'UNSPECIFIED', ('UNSPECIFIED'), ('UNSPECIFIED'), ('UNSPECIFIED') ) ;
#157 = ORIENTED_EDGE ( 'NONE', *, *, #180, .F. ) ;
#158 = CIRCLE ( 'NONE', #189, 17.50000000000000711 ) ;
#159 = CIRCLE ( 'NONE', #215, 17.50000000000000711 ) ;
#160 = APPROVAL_STATUS ( 'not_yet_approved' ) ;
#161 = PERSON_AND_ORGANIZATION ( #156, #48 ) ;
#162 = ADVANCED_FACE ( 'NONE', ( #205 ), #183, .T. ) ;
#163 = DATE_AND_TIME ( #136, #155 ) ;
#164 = DIRECTION ( 'NONE',  ( 0.9996351442243138763, -0.02521788943658041446, 0.009676594648940824855 ) ) ;
#165 = ORIENTED_EDGE ( 'NONE', *, *, #67, .F. ) ;
#166 = LINE ( 'NONE', #188, #65 ) ;
#167 = DIRECTION ( 'NONE',  ( -0.9996351442243136542, 0.02521788943658036589, -0.009676594648941074656 ) ) ;
#168 = CARTESIAN_POINT ( 'NONE',  ( 142.8189602244054583, -52.03187937207783165, 47.29072123727411991 ) ) ;
#169 = PERSON_AND_ORGANIZATION ( #156, #48 ) ;
#170 = PERSON_AND_ORGANIZATION ( #156, #48 ) ;
#171 = CC_DESIGN_PERSON_AND_ORGANIZATION_ASSIGNMENT ( #169, #72, ( #12 ) ) ;
#172 = PLANE ( 'NONE',  #178 ) ;
#173 = DIRECTION ( 'NONE',  ( 0.9996351442243137653, -0.02521788943658041099, 0.009676594648940824855 ) ) ;
#174 = DATE_AND_TIME ( #51, #196 ) ;
#175 = ORIENTED_EDGE ( 'NONE', *, *, #16, .T. ) ;
#176 = PERSON_AND_ORGANIZATION_ROLE ( 'classification_officer' ) ;
#177 = EDGE_LOOP ( 'NONE', ( #249, #165, #175, #81 ) ) ;
#178 = AXIS2_PLACEMENT_3D ( 'NONE', #197, #173, #30 ) ;
#179 = CC_DESIGN_APPROVAL ( #58, ( #122 ) ) ;
#180 = EDGE_CURVE ( 'NONE', #203, #40, #110, .T. ) ;
#181 = PERSON_AND_ORGANIZATION_ROLE ( 'creator' ) ;
#182 = ORIENTED_EDGE ( 'NONE', *, *, #113, .F. ) ;
#183 = CYLINDRICAL_SURFACE ( 'NONE', #61, 17.50000000000000355 ) ;
#184 = CIRCLE ( 'NONE', #21, 12.49999999999994493 ) ;
#185 = DIRECTION ( 'NONE',  ( 0.02521907017675183507, 0.9996819486713862668, 0.000000000000000000 ) ) ;
#186 = DIRECTION ( 'NONE',  ( -0.9996351442243136542, 0.02521788943658036589, -0.009676594648941074656 ) ) ;
#187 = ORIENTED_EDGE ( 'NONE', *, *, #232, .F. ) ;
#188 = CARTESIAN_POINT ( 'NONE',  ( 143.7016276805917698, -17.04301116857929799, 47.29072123727411991 ) ) ;
#189 = AXIS2_PLACEMENT_3D ( 'NONE', #26, #227, #6 ) ;
#190 = LOCAL_TIME ( 11, 42, 20.00000000000000000, #78 ) ;
#191 = PERSON_AND_ORGANIZATION ( #156, #48 ) ;
#192 = CYLINDRICAL_SURFACE ( 'NONE', #73, 12.49999999999994849 ) ;
#193 = EDGE_CURVE ( 'NONE', #226, #233, #69, .T. ) ;
#194 = FACE_BOUND ( 'NONE', #135, .T. ) ;
#195 = AXIS2_PLACEMENT_3D ( 'NONE', #148, #105, #206 ) ;
#196 = LOCAL_TIME ( 11, 42, 20.00000000000000000, #71 ) ;
#197 = CARTESIAN_POINT ( 'NONE',  ( 93.78087870896025890, -33.28922342638123411, 46.81175423861987639 ) ) ;
#198 = CALENDAR_DATE ( 2025, 6, 6 ) ;
#199 = ORIENTED_EDGE ( 'NONE', *, *, #16, .F. ) ;
#200 = CC_DESIGN_PERSON_AND_ORGANIZATION_ASSIGNMENT ( #161, #181, ( #247 ) ) ;
#201 = DATE_TIME_ROLE ( 'classification_date' ) ;
#202 = APPROVAL_ROLE ( '' ) ;
#203 = VERTEX_POINT ( 'NONE', #231 ) ;
#204 = CARTESIAN_POINT ( 'NONE',  ( 88.78270298783874637, -33.16313397919834216, 46.76337126537516298 ) ) ;
#205 = FACE_OUTER_BOUND ( 'NONE', #177, .T. ) ;
#206 = DIRECTION ( 'NONE',  ( -0.02521907017675194956, -0.9996819486713861558, 0.000000000000000000 ) ) ;
#207 = DIRECTION ( 'NONE',  ( -0.9996351442243138763, 0.02521788943658037283, -0.009676594648941076390 ) ) ;
#208 = ADVANCED_FACE ( 'NONE', ( #13 ), #192, .F. ) ;
#209 = CARTESIAN_POINT ( 'NONE',  ( 143.5755323297080110, -22.04142091193627095, 47.29072123727404886 ) ) ;
#210 = MANIFOLD_SOLID_BREP ( 'Extrusion1', #121 ) ;
#211 = FACE_OUTER_BOUND ( 'NONE', #23, .T. ) ;
#212 = AXIS2_PLACEMENT_3D ( 'NONE', #217, #49, #152 ) ;
#213 = DIRECTION ( 'NONE',  ( 0.000000000000000000, 0.000000000000000000, 1.000000000000000000 ) ) ;
#214 = CARTESIAN_POINT ( 'NONE',  ( 143.2602939524986141, -34.53744527032854705, 47.29072123727404886 ) ) ;
#215 = AXIS2_PLACEMENT_3D ( 'NONE', #245, #229, #111 ) ;
#216 = CC_DESIGN_PERSON_AND_ORGANIZATION_ASSIGNMENT ( #59, #176, ( #8 ) ) ;
#217 = CARTESIAN_POINT ( 'NONE',  ( 88.78270298783874637, -33.16313397919836348, 46.76337126537523403 ) ) ;
#218 = APPROVAL_DATE_TIME ( #163, #238 ) ;
#219 = ORIENTED_EDGE ( 'NONE', *, *, #5, .T. ) ;
#220 = ADVANCED_FACE ( 'NONE', ( #194, #211 ), #172, .T. ) ;
#221 = VERTEX_POINT ( 'NONE', #92 ) ;
#222 = ORIENTED_EDGE ( 'NONE', *, *, #95, .T. ) ;
#223 = LINE ( 'NONE', #209, #145 ) ;
#224 = ORIENTED_EDGE ( 'NONE', *, *, #132, .F. ) ;
#225 = VECTOR ( 'NONE', #167, 1000.000000000000227 ) ;
#226 = VERTEX_POINT ( 'NONE', #34 ) ;
#227 = DIRECTION ( 'NONE',  ( 0.9996351442243138763, -0.02521788943658037283, 0.009676594648941078125 ) ) ;
#228 = DIRECTION ( 'NONE',  ( 0.9996351442243138763, -0.02521788943658037283, 0.009676594648941078125 ) ) ;
#229 = DIRECTION ( 'NONE',  ( 0.9996351442243138763, -0.02521788943658037283, 0.009676594648941078125 ) ) ;
#230 = COORDINATED_UNIVERSAL_TIME_OFFSET ( 1, 0, .AHEAD. ) ;
#231 = CARTESIAN_POINT ( 'NONE',  ( 94.22221243705341465, -15.79478932463199570, 46.81175423861994034 ) ) ;
#232 = EDGE_CURVE ( 'NONE', #2, #77, #159, .T. ) ;
#233 = VERTEX_POINT ( 'NONE', #86 ) ;
#234 = APPROVAL_STATUS ( 'not_yet_approved' ) ;
#235 = CARTESIAN_POINT ( 'NONE',  ( 142.9450555752892171, -47.03346962872082315, 47.29072123727404886 ) ) ;
#236 = ORIENTED_EDGE ( 'NONE', *, *, #95, .F. ) ;
#237 = DIRECTION ( 'NONE',  ( -0.9996351442243136542, 0.02521788943658036589, -0.009676594648941074656 ) ) ;
#238 = APPROVAL ( #234, 'UNSPECIFIED' ) ;
#239 = ORIENTED_EDGE ( 'NONE', *, *, #67, .T. ) ;
#240 = CYLINDRICAL_SURFACE ( 'NONE', #89, 17.50000000000000355 ) ;
#241 = CIRCLE ( 'NONE', #117, 12.50000000000001066 ) ;
#242 = CC_DESIGN_APPROVAL ( #102, ( #8 ) ) ;
#243 =( NAMED_UNIT ( * ) PLANE_ANGLE_UNIT ( ) SI_UNIT ( $, .RADIAN. ) );
#244 = ADVANCED_FACE ( 'NONE', ( #109, #52 ), #149, .F. ) ;
#245 = CARTESIAN_POINT ( 'NONE',  ( 88.78270298783874637, -33.16313397919836348, 46.76337126537523403 ) ) ;
#246 = VECTOR ( 'NONE', #237, 1000.000000000000227 ) ;
#247 = PRODUCT_DEFINITION_FORMATION_WITH_SPECIFIED_SOURCE ( 'ANY', '', #12, .NOT_KNOWN. ) ;
#248 = APPROVAL_ROLE ( '' ) ;
#249 = ORIENTED_EDGE ( 'NONE', *, *, #104, .F. ) ;
ENDSEC;
END-ISO-10303-21;
