ISO-10303-21;
HEADER;
FILE_DESCRIPTION (( 'STEP AP203' ),
    '1' );
FILE_NAME ('Vis_6.STEP',
    '2025-06-16T14:30:06',
    ( '' ),
    ( '' ),
    'SwSTEP 2.0',
    'SolidWorks 2024',
    '' );
FILE_SCHEMA (( 'CONFIG_CONTROL_DESIGN' ));
ENDSEC;

DATA;
#1 = APPROVAL ( #40, 'UNSPECIFIED' ) ;
#2 = LOCAL_TIME ( 16, 30, 6.000000000000000000, #132 ) ;
#3 = MECHANICAL_CONTEXT ( 'NONE', #267, 'mechanical' ) ;
#4 = VERTEX_POINT ( 'NONE', #17 ) ;
#5 = ORIENTED_EDGE ( 'NONE', *, *, #286, .T. ) ;
#6 = PERSON_AND_ORGANIZATION ( #23, #189 ) ;
#7 = ORIENTED_EDGE ( 'NONE', *, *, #298, .T. ) ;
#8 = ADVANCED_FACE ( 'NONE', ( #293 ), #274, .F. ) ;
#9 = CC_DESIGN_PERSON_AND_ORGANIZATION_ASSIGNMENT ( #297, #51, ( #358 ) ) ;
#10 = VECTOR ( 'NONE', #59, 1000.000000000000000 ) ;
#11 = ORIENTED_EDGE ( 'NONE', *, *, #15, .T. ) ;
#12 = DATE_TIME_ROLE ( 'classification_date' ) ;
#13 = LINE ( 'NONE', #103, #85 ) ;
#14 = PLANE ( 'NONE',  #42 ) ;
#15 = EDGE_CURVE ( 'NONE', #72, #36, #13, .T. ) ;
#16 = DIRECTION ( 'NONE',  ( 0.000000000000000000, -0.000000000000000000, 1.000000000000000000 ) ) ;
#17 = CARTESIAN_POINT ( 'NONE',  ( 40.00000000000000000, -60.00000000000000000, 0.000000000000000000 ) ) ;
#18 = LINE ( 'NONE', #294, #354 ) ;
#19 = APPROVAL_ROLE ( '' ) ;
#20 = LOCAL_TIME ( 16, 30, 6.000000000000000000, #87 ) ;
#21 = DIRECTION ( 'NONE',  ( 0.000000000000000000, 0.000000000000000000, 1.000000000000000000 ) ) ;
#22 = PERSON_AND_ORGANIZATION ( #23, #189 ) ;
#23 = PERSON ( 'UNSPECIFIED', 'UNSPECIFIED', 'UNSPECIFIED', ('UNSPECIFIED'), ('UNSPECIFIED'), ('UNSPECIFIED') ) ;
#24 = APPROVAL_ROLE ( '' ) ;
#25 = MANIFOLD_SOLID_BREP ( 'Boss.-Extru.1', #176 ) ;
#26 = CARTESIAN_POINT ( 'NONE',  ( 0.000000000000000000, 0.000000000000000000, 0.000000000000000000 ) ) ;
#27 = CALENDAR_DATE ( 2025, 16, 6 ) ;
#28 =( NAMED_UNIT ( * ) PLANE_ANGLE_UNIT ( ) SI_UNIT ( $, .RADIAN. ) );
#29 = COORDINATED_UNIVERSAL_TIME_OFFSET ( 1, 0, .AHEAD. ) ;
#30 = CARTESIAN_POINT ( 'NONE',  ( -120.0000000000000000, 0.000000000000000000, 0.000000000000000000 ) ) ;
#31 = PERSON_AND_ORGANIZATION ( #23, #189 ) ;
#32 = CC_DESIGN_PERSON_AND_ORGANIZATION_ASSIGNMENT ( #22, #230, ( #91 ) ) ;
#33 = EDGE_CURVE ( 'NONE', #336, #155, #18, .T. ) ;
#34 = ORGANIZATION ( 'NAUO-ORG1', 'UNSPECIFIED', 'UNSPECIFIED' ) ;
#35 = PERSON_AND_ORGANIZATION_ROLE ( 'creator' ) ;
#36 = VERTEX_POINT ( 'NONE', #172 ) ;
#37 = ADVANCED_FACE ( 'NONE', ( #220 ), #162, .T. ) ;
#38 = CALENDAR_DATE ( 2025, 16, 6 ) ;
#39 = LOCAL_TIME ( 16, 30, 6.000000000000000000, #314 ) ;
#40 = APPROVAL_STATUS ( 'not_yet_approved' ) ;
#41 = ORIENTED_EDGE ( 'NONE', *, *, #188, .F. ) ;
#42 = AXIS2_PLACEMENT_3D ( 'NONE', #131, #44, #246 ) ;
#43 = DATE_AND_TIME ( #38, #200 ) ;
#44 = DIRECTION ( 'NONE',  ( 0.000000000000000000, -1.000000000000000000, 0.000000000000000000 ) ) ;
#45 = CARTESIAN_POINT ( 'NONE',  ( -120.0000000000000000, -60.00000000000000000, 0.000000000000000000 ) ) ;
#46 = CARTESIAN_POINT ( 'NONE',  ( 40.00000000000000000, -69.99999999999998579, 9.999999999999998224 ) ) ;
#47 = VECTOR ( 'NONE', #108, 1000.000000000000000 ) ;
#48 = APPROVAL ( #308, 'UNSPECIFIED' ) ;
#49 =( REPRESENTATION_RELATIONSHIP ('NONE','NONE', #240, #255 ) REPRESENTATION_RELATIONSHIP_WITH_TRANSFORMATION ( #290 )SHAPE_REPRESENTATION_RELATIONSHIP( ) );
#50 = CARTESIAN_POINT ( 'NONE',  ( -120.0000000000000000, -60.00000000000000000, 0.000000000000000000 ) ) ;
#51 = PERSON_AND_ORGANIZATION_ROLE ( 'classification_officer' ) ;
#52 =( NAMED_UNIT ( * ) SI_UNIT ( $, .STERADIAN. ) SOLID_ANGLE_UNIT ( ) );
#53 = AXIS2_PLACEMENT_3D ( 'NONE', #225, #302, #307 ) ;
#54 = PLANE ( 'NONE',  #349 ) ;
#55 = PERSON_AND_ORGANIZATION ( #23, #189 ) ;
#56 = DIRECTION ( 'NONE',  ( 0.000000000000000000, 0.000000000000000000, 1.000000000000000000 ) ) ;
#57 = COORDINATED_UNIVERSAL_TIME_OFFSET ( 1, 0, .AHEAD. ) ;
#58 = LOCAL_TIME ( 16, 30, 6.000000000000000000, #57 ) ;
#59 = DIRECTION ( 'NONE',  ( 0.000000000000000000, 0.000000000000000000, 1.000000000000000000 ) ) ;
#60 = COORDINATED_UNIVERSAL_TIME_OFFSET ( 1, 0, .AHEAD. ) ;
#61 = EDGE_CURVE ( 'NONE', #187, #212, #192, .T. ) ;
#62 = CC_DESIGN_PERSON_AND_ORGANIZATION_ASSIGNMENT ( #160, #102, ( #231 ) ) ;
#63 = APPLICATION_CONTEXT ( 'configuration controlled 3d designs of mechanical parts and assemblies' ) ;
#64 = ORIENTED_EDGE ( 'NONE', *, *, #166, .F. ) ;
#65 = ORIENTED_EDGE ( 'NONE', *, *, #300, .T. ) ;
#66 = UNCERTAINTY_MEASURE_WITH_UNIT (LENGTH_MEASURE( 1.000000000000000082E-05 ), #222, 'distance_accuracy_value', 'NONE');
#67 = COORDINATED_UNIVERSAL_TIME_OFFSET ( 1, 0, .AHEAD. ) ;
#68 = APPLICATION_CONTEXT ( 'configuration controlled 3d designs of mechanical parts and assemblies' ) ;
#69 = CC_DESIGN_PERSON_AND_ORGANIZATION_ASSIGNMENT ( #243, #168, ( #140 ) ) ;
#70 = LOCAL_TIME ( 16, 30, 6.000000000000000000, #329 ) ;
#71 = CC_DESIGN_APPROVAL ( #1, ( #140 ) ) ;
#72 = VERTEX_POINT ( 'NONE', #46 ) ;
#73 = SHAPE_DEFINITION_REPRESENTATION ( #221, #255 ) ;
#74 = ORIENTED_EDGE ( 'NONE', *, *, #166, .T. ) ;
#75 = ORIENTED_EDGE ( 'NONE', *, *, #305, .F. ) ;
#76 = PLANE ( 'NONE',  #53 ) ;
#77 = EDGE_CURVE ( 'NONE', #155, #187, #196, .T. ) ;
#78 = APPROVAL ( #301, 'UNSPECIFIED' ) ;
#79 = DIRECTION ( 'NONE',  ( 0.000000000000000000, 0.000000000000000000, 1.000000000000000000 ) ) ;
#80 = DIRECTION ( 'NONE',  ( 0.000000000000000000, 1.000000000000000000, 1.224646799147355672E-16 ) ) ;
#81 = CALENDAR_DATE ( 2025, 16, 6 ) ;
#82 = LINE ( 'NONE', #112, #210 ) ;
#83 = CALENDAR_DATE ( 2025, 16, 6 ) ;
#84 = SHAPE_DEFINITION_REPRESENTATION ( #138, #240 ) ;
#85 = VECTOR ( 'NONE', #273, 1000.000000000000000 ) ;
#86 = DIRECTION ( 'NONE',  ( -1.000000000000000000, -0.000000000000000000, 0.000000000000000000 ) ) ;
#87 = COORDINATED_UNIVERSAL_TIME_OFFSET ( 1, 0, .AHEAD. ) ;
#88 = LINE ( 'NONE', #199, #93 ) ;
#89 = PERSON_AND_ORGANIZATION ( #23, #189 ) ;
#90 = LOCAL_TIME ( 16, 30, 6.000000000000000000, #134 ) ;
#91 = PRODUCT_DEFINITION ( 'UNKNOWN', '', #231, #195 ) ;
#92 = CC_DESIGN_APPROVAL ( #78, ( #231 ) ) ;
#93 = VECTOR ( 'NONE', #284, 1000.000000000000000 ) ;
#94 = CARTESIAN_POINT ( 'NONE',  ( 0.000000000000000000, 0.000000000000000000, 0.000000000000000000 ) ) ;
#95 = VECTOR ( 'NONE', #79, 1000.000000000000000 ) ;
#96 = DIRECTION ( 'NONE',  ( 0.000000000000000000, 0.000000000000000000, 1.000000000000000000 ) ) ;
#97 = APPROVAL ( #340, 'UNKNOWN' ) ;
#98 = PERSON_AND_ORGANIZATION ( #23, #189 ) ;
#99 = EDGE_LOOP ( 'NONE', ( #185, #64, #101, #65 ) ) ;
#100 = CALENDAR_DATE ( 2025, 16, 6 ) ;
#101 = ORIENTED_EDGE ( 'NONE', *, *, #286, .F. ) ;
#102 = PERSON_AND_ORGANIZATION_ROLE ( 'design_supplier' ) ;
#103 = CARTESIAN_POINT ( 'NONE',  ( 40.00000000000000000, -69.99999999999998579, -1.224646799147354834E-15 ) ) ;
#104 = DATE_AND_TIME ( #81, #90 ) ;
#105 = CONTEXT_DEPENDENT_SHAPE_REPRESENTATION ( #49, #316 ) ;
#106 = LINE ( 'NONE', #341, #95 ) ;
#107 = ORIENTED_EDGE ( 'NONE', *, *, #305, .T. ) ;
#108 = DIRECTION ( 'NONE',  ( -0.000000000000000000, -0.000000000000000000, -1.000000000000000000 ) ) ;
#109 = PERSON_AND_ORGANIZATION_ROLE ( 'design_supplier' ) ;
#110 = CC_DESIGN_APPROVAL ( #97, ( #174 ) ) ;
#111 = CARTESIAN_POINT ( 'NONE',  ( 40.00000000000000000, 0.000000000000000000, 0.000000000000000000 ) ) ;
#112 = CARTESIAN_POINT ( 'NONE',  ( -120.0000000000000000, -60.00000000000000000, 10.00000000000000000 ) ) ;
#113 = PERSON_AND_ORGANIZATION ( #23, #189 ) ;
#114 = APPROVAL ( #323, 'UNSPECIFIED' ) ;
#115 =( NAMED_UNIT ( * ) SI_UNIT ( $, .STERADIAN. ) SOLID_ANGLE_UNIT ( ) );
#116 = APPROVAL_ROLE ( '' ) ;
#117 = CC_DESIGN_SECURITY_CLASSIFICATION ( #358, ( #289 ) ) ;
#118 = LINE ( 'NONE', #181, #346 ) ;
#119 = CALENDAR_DATE ( 2025, 16, 6 ) ;
#120 = DIRECTION ( 'NONE',  ( 1.000000000000000000, 0.000000000000000000, 0.000000000000000000 ) ) ;
#121 = APPROVAL_STATUS ( 'not_yet_approved' ) ;
#122 = DIRECTION ( 'NONE',  ( 1.000000000000000000, 0.000000000000000000, 0.000000000000000000 ) ) ;
#123 = CC_DESIGN_SECURITY_CLASSIFICATION ( #174, ( #361 ) ) ;
#124 = ORIENTED_EDGE ( 'NONE', *, *, #77, .T. ) ;
#125 = CC_DESIGN_PERSON_AND_ORGANIZATION_ASSIGNMENT ( #258, #35, ( #289 ) ) ;
#126 = CALENDAR_DATE ( 2025, 16, 6 ) ;
#127 = UNCERTAINTY_MEASURE_WITH_UNIT (LENGTH_MEASURE( 1.000000000000000082E-05 ), #229, 'distance_accuracy_value', 'NONE');
#128 = CC_DESIGN_APPROVAL ( #150, ( #358 ) ) ;
#129 = CC_DESIGN_PERSON_AND_ORGANIZATION_ASSIGNMENT ( #55, #178, ( #231 ) ) ;
#130 = ADVANCED_FACE ( 'NONE', ( #296 ), #14, .T. ) ;
#131 = CARTESIAN_POINT ( 'NONE',  ( -120.0000000000000000, -69.99999999999998579, -1.224646799147354834E-15 ) ) ;
#132 = COORDINATED_UNIVERSAL_TIME_OFFSET ( 1, 0, .AHEAD. ) ;
#133 = APPROVAL_PERSON_ORGANIZATION ( #356, #48, #24 ) ;
#134 = COORDINATED_UNIVERSAL_TIME_OFFSET ( 1, 0, .AHEAD. ) ;
#135 = FACE_OUTER_BOUND ( 'NONE', #239, .T. ) ;
#136 = DIRECTION ( 'NONE',  ( -1.000000000000000000, -0.000000000000000000, 0.000000000000000000 ) ) ;
#137 = PERSON_AND_ORGANIZATION ( #23, #189 ) ;
#138 = PRODUCT_DEFINITION_SHAPE ( 'NONE', 'NONE',  #184 ) ;
#139 = DIRECTION ( 'NONE',  ( -0.000000000000000000, 1.000000000000000000, 1.224646799147355672E-16 ) ) ;
#140 = SECURITY_CLASSIFICATION ( '', '', #217 ) ;
#141 = LOCAL_TIME ( 16, 30, 6.000000000000000000, #143 ) ;
#142 = CARTESIAN_POINT ( 'NONE',  ( 0.000000000000000000, 0.000000000000000000, 0.000000000000000000 ) ) ;
#143 = COORDINATED_UNIVERSAL_TIME_OFFSET ( 1, 0, .AHEAD. ) ;
#144 = VECTOR ( 'NONE', #194, 1000.000000000000000 ) ;
#145 = DATE_AND_TIME ( #223, #350 ) ;
#146 = CARTESIAN_POINT ( 'NONE',  ( 40.00000000000000000, -60.00000000000000000, 10.00000000000000000 ) ) ;
#147 = PERSON_AND_ORGANIZATION_ROLE ( 'design_owner' ) ;
#148 =( GEOMETRIC_REPRESENTATION_CONTEXT ( 3 ) GLOBAL_UNCERTAINTY_ASSIGNED_CONTEXT ( ( #127 ) ) GLOBAL_UNIT_ASSIGNED_CONTEXT ( ( #229, #152, #52 ) ) REPRESENTATION_CONTEXT ( 'NONE', 'WORKASPACE' ) );
#149 = APPROVAL_PERSON_ORGANIZATION ( #98, #1, #266 ) ;
#150 = APPROVAL ( #204, 'UNSPECIFIED' ) ;
#151 = SECURITY_CLASSIFICATION_LEVEL ( 'unclassified' ) ;
#152 =( NAMED_UNIT ( * ) PLANE_ANGLE_UNIT ( ) SI_UNIT ( $, .RADIAN. ) );
#153 = PERSON_AND_ORGANIZATION_ROLE ( 'design_owner' ) ;
#154 = APPROVAL_PERSON_ORGANIZATION ( #6, #150, #360 ) ;
#155 = VERTEX_POINT ( 'NONE', #244 ) ;
#156 = EDGE_CURVE ( 'NONE', #287, #72, #345, .T. ) ;
#157 = CALENDAR_DATE ( 2025, 16, 6 ) ;
#158 = APPROVAL_PERSON_ORGANIZATION ( #137, #114, #19 ) ;
#159 = LOCAL_TIME ( 16, 30, 6.000000000000000000, #67 ) ;
#160 = PERSON_AND_ORGANIZATION ( #23, #189 ) ;
#161 = AXIS2_PLACEMENT_3D ( 'NONE', #111, #136, #216 ) ;
#162 = PLANE ( 'NONE',  #331 ) ;
#163 = APPROVAL_DATE_TIME ( #104, #114 ) ;
#164 = PERSON_AND_ORGANIZATION ( #352, #34 ) ;
#165 = ORIENTED_EDGE ( 'NONE', *, *, #77, .F. ) ;
#166 = EDGE_CURVE ( 'NONE', #4, #287, #106, .T. ) ;
#167 = PRODUCT_RELATED_PRODUCT_CATEGORY ( 'detail', '', ( #275 ) ) ;
#168 = PERSON_AND_ORGANIZATION_ROLE ( 'classification_officer' ) ;
#169 = LOCAL_TIME ( 16, 30, 6.000000000000000000, #226 ) ;
#170 = DIRECTION ( 'NONE',  ( 0.000000000000000000, 1.000000000000000000, 0.000000000000000000 ) ) ;
#171 = ORIENTED_EDGE ( 'NONE', *, *, #300, .F. ) ;
#172 = CARTESIAN_POINT ( 'NONE',  ( 40.00000000000000000, -69.99999999999998579, -1.224646799147354834E-15 ) ) ;
#173 = PRODUCT_RELATED_PRODUCT_CATEGORY ( 'detail', '', ( #324 ) ) ;
#174 = SECURITY_CLASSIFICATION ( '', '', #186 ) ;
#175 = DATE_AND_TIME ( #157, #20 ) ;
#176 = CLOSED_SHELL ( 'NONE', ( #37, #130, #262, #232, #359, #8 ) ) ;
#177 = CARTESIAN_POINT ( 'NONE',  ( 0.000000000000000000, 0.000000000000000000, 0.000000000000000000 ) ) ;
#178 = PERSON_AND_ORGANIZATION_ROLE ( 'creator' ) ;
#179 = APPROVAL_DATE_TIME ( #145, #150 ) ;
#180 =( GEOMETRIC_REPRESENTATION_CONTEXT ( 3 ) GLOBAL_UNCERTAINTY_ASSIGNED_CONTEXT ( ( #66 ) ) GLOBAL_UNIT_ASSIGNED_CONTEXT ( ( #222, #28, #115 ) ) REPRESENTATION_CONTEXT ( 'NONE', 'WORKASPACE' ) );
#181 = CARTESIAN_POINT ( 'NONE',  ( -120.0000000000000000, -60.00000000000000000, 0.000000000000000000 ) ) ;
#182 = MECHANICAL_CONTEXT ( 'NONE', #206, 'mechanical' ) ;
#183 = APPLICATION_PROTOCOL_DEFINITION ( 'international standard', 'config_control_design', 1994, #267 ) ;
#184 = PRODUCT_DEFINITION ( 'UNKNOWN', '', #289, #319 ) ;
#185 = ORIENTED_EDGE ( 'NONE', *, *, #353, .T. ) ;
#186 = SECURITY_CLASSIFICATION_LEVEL ( 'unclassified' ) ;
#187 = VERTEX_POINT ( 'NONE', #218 ) ;
#188 = EDGE_CURVE ( 'NONE', #187, #36, #248, .T. ) ;
#189 = ORGANIZATION ( 'UNSPECIFIED', 'UNSPECIFIED', '' ) ;
#190 = ORIENTED_EDGE ( 'NONE', *, *, #156, .F. ) ;
#191 = DATE_AND_TIME ( #245, #2 ) ;
#192 = LINE ( 'NONE', #348, #208 ) ;
#193 = CC_DESIGN_DATE_AND_TIME_ASSIGNMENT ( #338, #278, ( #184 ) ) ;
#194 = DIRECTION ( 'NONE',  ( 1.000000000000000000, 0.000000000000000000, 0.000000000000000000 ) ) ;
#195 = DESIGN_CONTEXT ( 'detailed design', #63, 'design' ) ;
#196 = LINE ( 'NONE', #351, #47 ) ;
#197 = EDGE_LOOP ( 'NONE', ( #236, #165, #291, #171 ) ) ;
#198 = APPROVAL_DATE_TIME ( #203, #48 ) ;
#199 = CARTESIAN_POINT ( 'NONE',  ( -120.0000000000000000, -69.99999999999998579, 9.999999999999998224 ) ) ;
#200 = LOCAL_TIME ( 16, 30, 6.000000000000000000, #247 ) ;
#201 = PERSON_AND_ORGANIZATION ( #23, #189 ) ;
#202 = DATE_AND_TIME ( #27, #169 ) ;
#203 = DATE_AND_TIME ( #126, #58 ) ;
#204 = APPROVAL_STATUS ( 'not_yet_approved' ) ;
#205 = CC_DESIGN_SECURITY_CLASSIFICATION ( #140, ( #231 ) ) ;
#206 = APPLICATION_CONTEXT ( 'configuration controlled 3d designs of mechanical parts and assemblies' ) ;
#207 = LINE ( 'NONE', #330, #334 ) ;
#208 = VECTOR ( 'NONE', #139, 1000.000000000000000 ) ;
#209 = ORIENTED_EDGE ( 'NONE', *, *, #353, .F. ) ;
#210 = VECTOR ( 'NONE', #122, 1000.000000000000000 ) ;
#211 = APPROVAL_DATE_TIME ( #344, #97 ) ;
#212 = VERTEX_POINT ( 'NONE', #50 ) ;
#213 = EDGE_LOOP ( 'NONE', ( #5, #75, #41, #322 ) ) ;
#214 = APPROVAL_DATE_TIME ( #241, #1 ) ;
#215 = DATE_TIME_ROLE ( 'classification_date' ) ;
#216 = DIRECTION ( 'NONE',  ( 0.000000000000000000, 0.000000000000000000, 1.000000000000000000 ) ) ;
#217 = SECURITY_CLASSIFICATION_LEVEL ( 'unclassified' ) ;
#218 = CARTESIAN_POINT ( 'NONE',  ( -120.0000000000000000, -69.99999999999998579, -1.224646799147354834E-15 ) ) ;
#219 = CARTESIAN_POINT ( 'NONE',  ( 40.00000000000000000, -60.00000000000000000, 10.00000000000000000 ) ) ;
#220 = FACE_OUTER_BOUND ( 'NONE', #213, .T. ) ;
#221 = PRODUCT_DEFINITION_SHAPE ( 'NONE', 'NONE',  #91 ) ;
#222 =( LENGTH_UNIT ( ) NAMED_UNIT ( * ) SI_UNIT ( .MILLI., .METRE. ) );
#223 = CALENDAR_DATE ( 2025, 16, 6 ) ;
#224 = CC_DESIGN_DATE_AND_TIME_ASSIGNMENT ( #191, #215, ( #140 ) ) ;
#225 = CARTESIAN_POINT ( 'NONE',  ( -120.0000000000000000, -60.00000000000000000, 10.00000000000000000 ) ) ;
#226 = COORDINATED_UNIVERSAL_TIME_OFFSET ( 1, 0, .AHEAD. ) ;
#227 = DIRECTION ( 'NONE',  ( -0.000000000000000000, 1.000000000000000000, 1.224646799147355672E-16 ) ) ;
#228 = CALENDAR_DATE ( 2025, 16, 6 ) ;
#229 =( LENGTH_UNIT ( ) NAMED_UNIT ( * ) SI_UNIT ( .MILLI., .METRE. ) );
#230 = PERSON_AND_ORGANIZATION_ROLE ( 'creator' ) ;
#231 = PRODUCT_DEFINITION_FORMATION_WITH_SPECIFIED_SOURCE ( 'ANY', '', #275, .NOT_KNOWN. ) ;
#232 = ADVANCED_FACE ( 'NONE', ( #347 ), #292, .T. ) ;
#233 = APPLICATION_PROTOCOL_DEFINITION ( 'international standard', 'config_control_design', 1994, #68 ) ;
#234 = EDGE_LOOP ( 'NONE', ( #271, #311, #337, #124 ) ) ;
#235 = AXIS2_PLACEMENT_3D ( 'NONE', #45, #170, #16 ) ;
#236 = ORIENTED_EDGE ( 'NONE', *, *, #61, .F. ) ;
#237 = PERSON_AND_ORGANIZATION ( #23, #189 ) ;
#238 = AXIS2_PLACEMENT_3D ( 'NONE', #26, #252, #357 ) ;
#239 = EDGE_LOOP ( 'NONE', ( #7, #190, #209, #251 ) ) ;
#240 = SHAPE_REPRESENTATION ( 'Vis_6', ( #268, #238 ), #180 ) ;
#241 = DATE_AND_TIME ( #100, #39 ) ;
#242 = CC_DESIGN_PERSON_AND_ORGANIZATION_ASSIGNMENT ( #164, #270, ( #174 ) ) ;
#243 = PERSON_AND_ORGANIZATION ( #23, #189 ) ;
#244 = CARTESIAN_POINT ( 'NONE',  ( -120.0000000000000000, -69.99999999999998579, 9.999999999999998224 ) ) ;
#245 = CALENDAR_DATE ( 2025, 16, 6 ) ;
#246 = DIRECTION ( 'NONE',  ( 0.000000000000000000, -0.000000000000000000, -1.000000000000000000 ) ) ;
#247 = COORDINATED_UNIVERSAL_TIME_OFFSET ( 1, 0, .AHEAD. ) ;
#248 = LINE ( 'NONE', #318, #144 ) ;
#249 = DIRECTION ( 'NONE',  ( 0.000000000000000000, 1.224646799147355672E-16, -1.000000000000000000 ) ) ;
#250 = AXIS2_PLACEMENT_3D ( 'NONE', #142, #56, #277 ) ;
#251 = ORIENTED_EDGE ( 'NONE', *, *, #33, .T. ) ;
#252 = DIRECTION ( 'NONE',  ( 0.000000000000000000, 0.000000000000000000, 1.000000000000000000 ) ) ;
#253 = VECTOR ( 'NONE', #320, 1000.000000000000000 ) ;
#254 = DATE_AND_TIME ( #83, #281 ) ;
#255 = SHAPE_REPRESENTATION ( 'Vis_6^Assemblage1', ( #321 ), #148 ) ;
#256 = APPLICATION_PROTOCOL_DEFINITION ( 'international standard', 'config_control_design', 1994, #63 ) ;
#257 = SHAPE_REPRESENTATION_RELATIONSHIP ( 'NONE' , 'NONE' ,  #255, #261 ) ;
#258 = PERSON_AND_ORGANIZATION ( #23, #189 ) ;
#259 = APPROVAL ( #121, 'UNSPECIFIED' ) ;
#260 = APPROVAL_PERSON_ORGANIZATION ( #164, #97, #313 ) ;
#261 = ADVANCED_BREP_SHAPE_REPRESENTATION ( '', ( #25, #321 ), #148 ) ;
#262 = ADVANCED_FACE ( 'NONE', ( #135 ), #76, .T. ) ;
#263 = CC_DESIGN_PERSON_AND_ORGANIZATION_ASSIGNMENT ( #89, #147, ( #275 ) ) ;
#264 = PERSON_AND_ORGANIZATION ( #23, #189 ) ;
#265 = ORIENTED_EDGE ( 'NONE', *, *, #156, .T. ) ;
#266 = APPROVAL_ROLE ( '' ) ;
#267 = APPLICATION_CONTEXT ( 'configuration controlled 3d designs of mechanical parts and assemblies' ) ;
#268 = AXIS2_PLACEMENT_3D ( 'NONE', #177, #96, #309 ) ;
#269 = CC_DESIGN_APPROVAL ( #259, ( #91 ) ) ;
#270 = PERSON_AND_ORGANIZATION_ROLE ( 'classification_officer' ) ;
#271 = ORIENTED_EDGE ( 'NONE', *, *, #188, .T. ) ;
#272 = CC_DESIGN_DATE_AND_TIME_ASSIGNMENT ( #175, #304, ( #358 ) ) ;
#273 = DIRECTION ( 'NONE',  ( -0.000000000000000000, -0.000000000000000000, -1.000000000000000000 ) ) ;
#274 = PLANE ( 'NONE',  #161 ) ;
#275 = PRODUCT ( 'Vis_6^Assemblage1', 'Vis_6^Assemblage1', '', ( #182 ) ) ;
#276 = APPROVAL_ROLE ( '' ) ;
#277 = DIRECTION ( 'NONE',  ( 1.000000000000000000, 0.000000000000000000, 0.000000000000000000 ) ) ;
#278 = DATE_TIME_ROLE ( 'creation_date' ) ;
#279 = DIRECTION ( 'NONE',  ( 1.000000000000000000, 0.000000000000000000, 0.000000000000000000 ) ) ;
#280 = CARTESIAN_POINT ( 'NONE',  ( -120.0000000000000000, -60.00000000000000000, 10.00000000000000000 ) ) ;
#281 = LOCAL_TIME ( 16, 30, 6.000000000000000000, #29 ) ;
#282 = APPLICATION_PROTOCOL_DEFINITION ( 'international standard', 'config_control_design', 1994, #206 ) ;
#283 = CC_DESIGN_PERSON_AND_ORGANIZATION_ASSIGNMENT ( #113, #109, ( #289 ) ) ;
#284 = DIRECTION ( 'NONE',  ( 1.000000000000000000, 0.000000000000000000, 0.000000000000000000 ) ) ;
#285 = APPROVAL_DATE_TIME ( #327, #259 ) ;
#286 = EDGE_CURVE ( 'NONE', #212, #4, #118, .T. ) ;
#287 = VERTEX_POINT ( 'NONE', #146 ) ;
#288 = CC_DESIGN_APPROVAL ( #114, ( #184 ) ) ;
#289 = PRODUCT_DEFINITION_FORMATION_WITH_SPECIFIED_SOURCE ( 'ANY', '', #324, .NOT_KNOWN. ) ;
#290 = ITEM_DEFINED_TRANSFORMATION ( 'NONE', 'NONE', #238,  #321 ) ;
#291 = ORIENTED_EDGE ( 'NONE', *, *, #33, .F. ) ;
#292 = PLANE ( 'NONE',  #235 ) ;
#293 = FACE_OUTER_BOUND ( 'NONE', #339, .T. ) ;
#294 = CARTESIAN_POINT ( 'NONE',  ( -120.0000000000000000, -60.00000000000000000, 10.00000000000000000 ) ) ;
#295 = CC_DESIGN_DATE_AND_TIME_ASSIGNMENT ( #43, #12, ( #174 ) ) ;
#296 = FACE_OUTER_BOUND ( 'NONE', #234, .T. ) ;
#297 = PERSON_AND_ORGANIZATION ( #23, #189 ) ;
#298 = EDGE_CURVE ( 'NONE', #155, #72, #88, .T. ) ;
#299 = DIRECTION ( 'NONE',  ( 0.000000000000000000, 0.000000000000000000, 1.000000000000000000 ) ) ;
#300 = EDGE_CURVE ( 'NONE', #212, #336, #335, .T. ) ;
#301 = APPROVAL_STATUS ( 'not_yet_approved' ) ;
#302 = DIRECTION ( 'NONE',  ( 0.000000000000000000, -1.734723475976808327E-16, 1.000000000000000000 ) ) ;
#303 = APPROVAL_DATE_TIME ( #202, #78 ) ;
#304 = DATE_TIME_ROLE ( 'classification_date' ) ;
#305 = EDGE_CURVE ( 'NONE', #36, #4, #207, .T. ) ;
#306 = APPROVAL_PERSON_ORGANIZATION ( #237, #259, #276 ) ;
#307 = DIRECTION ( 'NONE',  ( 0.000000000000000000, -1.000000000000000000, -1.734723475976808327E-16 ) ) ;
#308 = APPROVAL_STATUS ( 'not_yet_approved' ) ;
#309 = DIRECTION ( 'NONE',  ( 1.000000000000000000, 0.000000000000000000, 0.000000000000000000 ) ) ;
#310 = CC_DESIGN_PERSON_AND_ORGANIZATION_ASSIGNMENT ( #264, #332, ( #184 ) ) ;
#311 = ORIENTED_EDGE ( 'NONE', *, *, #15, .F. ) ;
#312 = APPROVAL_PERSON_ORGANIZATION ( #201, #78, #116 ) ;
#313 = APPROVAL_ROLE ( '' ) ;
#314 = COORDINATED_UNIVERSAL_TIME_OFFSET ( 1, 0, .AHEAD. ) ;
#315 = DIRECTION ( 'NONE',  ( 0.000000000000000000, -1.000000000000000000, -1.734723475976808080E-16 ) ) ;
#316 = PRODUCT_DEFINITION_SHAPE ( 'NONE', 'NONE',  #361 ) ;
#317 = CALENDAR_DATE ( 2025, 16, 6 ) ;
#318 = CARTESIAN_POINT ( 'NONE',  ( -120.0000000000000000, -69.99999999999998579, -1.224646799147354834E-15 ) ) ;
#319 = DESIGN_CONTEXT ( 'detailed design', #68, 'design' ) ;
#320 = DIRECTION ( 'NONE',  ( 0.000000000000000000, -1.000000000000000000, -1.734723475976808080E-16 ) ) ;
#321 = AXIS2_PLACEMENT_3D ( 'NONE', #94, #21, #279 ) ;
#322 = ORIENTED_EDGE ( 'NONE', *, *, #61, .T. ) ;
#323 = APPROVAL_STATUS ( 'not_yet_approved' ) ;
#324 = PRODUCT ( 'Vis_6', 'Vis_6', '', ( #3 ) ) ;
#325 = CARTESIAN_POINT ( 'NONE',  ( -120.0000000000000000, -60.00000000000000000, 0.000000000000000000 ) ) ;
#326 = CC_DESIGN_PERSON_AND_ORGANIZATION_ASSIGNMENT ( #31, #153, ( #324 ) ) ;
#327 = DATE_AND_TIME ( #119, #141 ) ;
#328 = FACE_OUTER_BOUND ( 'NONE', #197, .T. ) ;
#329 = COORDINATED_UNIVERSAL_TIME_OFFSET ( 1, 0, .AHEAD. ) ;
#330 = CARTESIAN_POINT ( 'NONE',  ( 40.00000000000000000, -60.00000000000000000, 0.000000000000000000 ) ) ;
#331 = AXIS2_PLACEMENT_3D ( 'NONE', #325, #249, #80 ) ;
#332 = PERSON_AND_ORGANIZATION_ROLE ( 'creator' ) ;
#333 = DATE_TIME_ROLE ( 'creation_date' ) ;
#334 = VECTOR ( 'NONE', #227, 1000.000000000000000 ) ;
#335 = LINE ( 'NONE', #355, #10 ) ;
#336 = VERTEX_POINT ( 'NONE', #280 ) ;
#337 = ORIENTED_EDGE ( 'NONE', *, *, #298, .F. ) ;
#338 = DATE_AND_TIME ( #228, #70 ) ;
#339 = EDGE_LOOP ( 'NONE', ( #107, #74, #265, #11 ) ) ;
#340 = APPROVAL_STATUS ( 'not_yet_approved' ) ;
#341 = CARTESIAN_POINT ( 'NONE',  ( 40.00000000000000000, -60.00000000000000000, 0.000000000000000000 ) ) ;
#342 = CC_DESIGN_APPROVAL ( #48, ( #289 ) ) ;
#343 = CC_DESIGN_DATE_AND_TIME_ASSIGNMENT ( #254, #333, ( #91 ) ) ;
#344 = DATE_AND_TIME ( #317, #159 ) ;
#345 = LINE ( 'NONE', #219, #253 ) ;
#346 = VECTOR ( 'NONE', #120, 1000.000000000000000 ) ;
#347 = FACE_OUTER_BOUND ( 'NONE', #99, .T. ) ;
#348 = CARTESIAN_POINT ( 'NONE',  ( -120.0000000000000000, -60.00000000000000000, 0.000000000000000000 ) ) ;
#349 = AXIS2_PLACEMENT_3D ( 'NONE', #30, #86, #299 ) ;
#350 = LOCAL_TIME ( 16, 30, 6.000000000000000000, #60 ) ;
#351 = CARTESIAN_POINT ( 'NONE',  ( -120.0000000000000000, -69.99999999999998579, -1.224646799147354834E-15 ) ) ;
#352 = PERSON ( 'NAUO-PER1', 'UNSPECIFIED', 'UNSPECIFIED', ('UNSPECIFIED'), ('UNSPECIFIED'), ('UNSPECIFIED') ) ;
#353 = EDGE_CURVE ( 'NONE', #336, #287, #82, .T. ) ;
#354 = VECTOR ( 'NONE', #315, 1000.000000000000000 ) ;
#355 = CARTESIAN_POINT ( 'NONE',  ( -120.0000000000000000, -60.00000000000000000, 0.000000000000000000 ) ) ;
#356 = PERSON_AND_ORGANIZATION ( #23, #189 ) ;
#357 = DIRECTION ( 'NONE',  ( 1.000000000000000000, 0.000000000000000000, 0.000000000000000000 ) ) ;
#358 = SECURITY_CLASSIFICATION ( '', '', #151 ) ;
#359 = ADVANCED_FACE ( 'NONE', ( #328 ), #54, .T. ) ;
#360 = APPROVAL_ROLE ( '' ) ;
#361 = NEXT_ASSEMBLY_USAGE_OCCURRENCE ( 'NAUO1', ' ', ' ', #184, #91, $ ) ;
ENDSEC;
END-ISO-10303-21;
